  0
SECTION
  2
HEADER
  9
$ACADVER
  1
AC1015
  9
$ACADMAINTVER
 70
     6
  9
$DWGCODEPAGE
  3
ANSI_932
  9
$INSBASE
 10
0.0
 20
0.0
 30
0.0
  9
$EXTMIN
 10
-106.859972
 20
67.971045
 30
1.000000E+20
  9
$EXTMAX
 10
216.295152
 20
273.993267
 30
-1.000000E+20
  9
$LIMMIN
 10
-106.859972
 20
67.971045
  9
$LIMMAX
 10
216.295152
 20
273.993267
  9
$ORTHOMODE
 70
     0
  9
$REGENMODE
 70
     1
  9
$FILLMODE
 70
     1
  9
$QTEXTMODE
 70
     0
  9
$MIRRTEXT
 70
     1
  9
$LTSCALE
 40
1.0
  9
$ATTMODE
 70
     1
  9
$TEXTSIZE
 40
0.2
  9
$TRACEWID
 40
0.05
  9
$TEXTSTYLE
  7
Standard
  9
$CLAYER
  8
0
  9
$CELTYPE
  6
Continuous
  9
$CECOLOR
 62
   256
  9
$CELTSCALE
 40
1.0
  9
$DISPSILH
 70
     0
  9
$DIMSCALE
 40
1.0
  9
$DIMASZ
 40
0.18
  9
$DIMEXO
 40
0.0625
  9
$DIMDLI
 40
0.38
  9
$DIMRND
 40
0.0
  9
$DIMDLE
 40
0.0
  9
$DIMEXE
 40
0.18
  9
$DIMTP
 40
0.0
  9
$DIMTM
 40
0.0
  9
$DIMTXT
 40
0.18
  9
$DIMCEN
 40
0.09
  9
$DIMTSZ
 40
0.0
  9
$DIMTOL
 70
     0
  9
$DIMLIM
 70
     0
  9
$DIMTIH
 70
     1
  9
$DIMTOH
 70
     1
  9
$DIMSE1
 70
     0
  9
$DIMSE2
 70
     0
  9
$DIMTAD
 70
     0
  9
$DIMZIN
 70
     0
  9
$DIMBLK
  1

  9
$DIMASO
 70
     1
  9
$DIMSHO
 70
     1
  9
$DIMPOST
  1

  9
$DIMAPOST
  1

  9
$DIMALT
 70
     0
  9
$DIMALTD
 70
     2
  9
$DIMALTF
 40
25.4
  9
$DIMLFAC
 40
1.0
  9
$DIMTOFL
 70
     0
  9
$DIMTVP
 40
0.0
  9
$DIMTIX
 70
     0
  9
$DIMSOXD
 70
     0
  9
$DIMSAH
 70
     0
  9
$DIMBLK1
  1

  9
$DIMBLK2
  1

  9
$DIMSTYLE
  2
Standard
  9
$DIMCLRD
 70
     0
  9
$DIMCLRE
 70
     0
  9
$DIMCLRT
 70
     0
  9
$DIMTFAC
 40
1.0
  9
$DIMGAP
 40
0.09
  9
$DIMJUST
 70
     0
  9
$DIMSD1
 70
     0
  9
$DIMSD2
 70
     0
  9
$DIMTOLJ
 70
     1
  9
$DIMTZIN
 70
     0
  9
$DIMALTZ
 70
     0
  9
$DIMALTTZ
 70
     0
  9
$DIMUPT
 70
     0
  9
$DIMDEC
 70
     4
  9
$DIMTDEC
 70
     4
  9
$DIMALTU
 70
     2
  9
$DIMALTTD
 70
     2
  9
$DIMTXSTY
  7
Standard
  9
$DIMAUNIT
 70
     0
  9
$DIMADEC
 70
     0
  9
$DIMALTRND
 40
0.0
  9
$DIMAZIN
 70
     0
  9
$DIMDSEP
 70
     0
  9
$DIMATFIT
 70
     3
  9
$DIMFRAC
 70
     0
  9
$DIMLDRBLK
  1

  9
$DIMLUNIT
 70
     2
  9
$DIMLWD
 70
     0
  9
$DIMLWE
 70
     0
  9
$DIMTMOVE
 70
     0
  9
$LUNITS
 70
     2
  9
$LUPREC
 70
     4
  9
$SKETCHINC
 40
0.1
  9
$FILLETRAD
 40
0.0
  9
$AUNITS
 70
     0
  9
$AUPREC
 70
     0
  9
$MENU
  1
acad
  9
$ELEVATION
 40
0.0
  9
$PELEVATION
 40
0.0
  9
$THICKNESS
 40
0.0
  9
$LIMCHECK
 70
     0
  9
$CHAMFERA
 40
0.0
  9
$CHAMFERB
 40
0.0
  9
$CHAMFERC
 40
0.0
  9
$CHAMFERD
 40
0.0
  9
$SKPOLY
 70
     0
  9
$TDCREATE
 40
0.000000000
  9
$TDUCREATE
 40
0.000000000
  9
$TDUPDATE
 40
0.000000000
  9
$TDUUPDATE
 40
0.000000000
  9
$TDINDWG
 40
0.0000000000
  9
$TDUSRTIMER
 40
0.0000000000
  9
$USRTIMER
 70
     1
  9
$ANGBASE
 50
0.0
  9
$ANGDIR
 70
     0
  9
$PDMODE
 70
     0
  9
$PDSIZE
 40
0.0
  9
$PLINEWID
 40
0.0
  9
$SPLFRAME
 70
     0
  9
$SPLINETYPE
 70
     6
  9
$SPLINESEGS
 70
     8
  9
$HANDSEED
  5
29A
  9
$SURFTAB1
 70
     6
  9
$SURFTAB2
 70
     6
  9
$SURFTYPE
 70
     6
  9
$SURFU
 70
     6
  9
$SURFV
 70
     6
  9
$UCSBASE
  2

  9
$UCSNAME
  2

  9
$UCSORG
 10
0.0
 20
0.0
 30
0.0
  9
$UCSXDIR
 10
1.0
 20
0.0
 30
0.0
  9
$UCSYDIR
 10
0.0
 20
1.0
 30
0.0
  9
$UCSORTHOREF
  2

  9
$UCSORTHOVIEW
 70
     0
  9
$UCSORGTOP
 10
0.0
 20
0.0
 30
0.0
  9
$UCSORGBOTTOM
 10
0.0
 20
0.0
 30
0.0
  9
$UCSORGLEFT
 10
0.0
 20
0.0
 30
0.0
  9
$UCSORGRIGHT
 10
0.0
 20
0.0
 30
0.0
  9
$UCSORGFRONT
 10
0.0
 20
0.0
 30
0.0
  9
$UCSORGBACK
 10
0.0
 20
0.0
 30
0.0
  9
$PUCSBASE
  2

  9
$PUCSNAME
  2

  9
$PUCSORG
 10
0.0
 20
0.0
 30
0.0
  9
$PUCSXDIR
 10
1.0
 20
0.0
 30
0.0
  9
$PUCSYDIR
 10
0.0
 20
1.0
 30
0.0
  9
$PUCSORTHOREF
  2

  9
$PUCSORTHOVIEW
 70
     0
  9
$PUCSORGTOP
 10
0.0
 20
0.0
 30
0.0
  9
$PUCSORGBOTTOM
 10
0.0
 20
0.0
 30
0.0
  9
$PUCSORGLEFT
 10
0.0
 20
0.0
 30
0.0
  9
$PUCSORGRIGHT
 10
0.0
 20
0.0
 30
0.0
  9
$PUCSORGFRONT
 10
0.0
 20
0.0
 30
0.0
  9
$PUCSORGBACK
 10
0.0
 20
0.0
 30
0.0
  9
$USERI1
 70
     0
  9
$USERI2
 70
     0
  9
$USERI3
 70
     0
  9
$USERI4
 70
     0
  9
$USERI5
 70
     0
  9
$USERR1
 40
0.0
  9
$USERR2
 40
0.0
  9
$USERR3
 40
0.0
  9
$USERR4
 40
0.0
  9
$USERR5
 40
0.0
  9
$WORLDVIEW
 70
     1
  9
$SHADEDGE
 70
     3
  9
$SHADEDIF
 70
    70
  9
$TILEMODE
 70
     1
  9
$MAXACTVP
 70
    16
  9
$PINSBASE
 10
0.0
 20
0.0
 30
0.0
  9
$PLIMCHECK
 70
     0
  9
$PEXTMIN
 10
1.000000E+20
 20
1.000000E+20
 30
1.000000E+20
  9
$PEXTMAX
 10
-1.000000E+20
 20
-1.000000E+20
 30
-1.000000E+20
  9
$PLIMMIN
 10
0.0
 20
0.0
  9
$PLIMMAX
 10
12.0
 20
9.0
  9
$UNITMODE
 70
     0
  9
$VISRETAIN
 70
     0
  9
$PLINEGEN
 70
     1
  9
$PSLTSCALE
 70
     0
  9
$TREEDEPTH
 70
  3020
  9
$CMLSTYLE
  2
Standard
  9
$CMLJUST
 70
     0
  9
$CMLSCALE
 40
1.0
  9
$PROXYGRAPHICS
 70
     0
  9
$MEASUREMENT
 70
     0
  9
$CELWEIGHT
370
     0
  9
$ENDCAPS
280
     0
  9
$JOINSTYLE
280
     0
  9
$LWDISPLAY
290
     0
  9
$INSUNITS
 70
     0
  9
$HYPERLINKBASE
  1

  9
$XEDIT
290
     1
  9
$CEPSNTYPE
380
     0
  9
$PSTYLEMODE
290
     1
  9
$FINGERPRINTGUID
  2

  9
$VERSIONGUID
  2

  9
$EXTNAMES
290
     1
  9
$PSVPSCALE
 40
0.0
  0
ENDSEC
  0
SECTION
  2
CLASSES
  0
CLASS
  1
LWPOLYLINE
  2
AcDbPolyline
  3
"AutoCAD"
 90
        0
280
     0
281
     1
  0
CLASS
  1
IMAGE
  2
AcDbRasterImage
  3
ISM
 90
      127
280
     0
281
     1
  0
CLASS
  1
OLE2FRAME
  2
AcDbOle2Frame
  3
""
 90
        0
280
     0
281
     1
  0
CLASS
  1
HATCH
  2
AcDbHatch
  3
"ACAD_SEDONA"
 90
        0
280
     0
281
     1
  0
CLASS
  1
DICTIONARYVAR
  2
AcDbDictionaryVar
  3
"AutoCAD"
 90
        0
280
     0
281
     0
  0
CLASS
  1
RASTERVARIABLES
  2
AcDbRasterVariables
  3
ISM
 90
        0
280
     0
281
     0
  0
CLASS
  1
IMAGEDEF
  2
AcDbRasterImageDef
  3
ISM
 90
        0
280
     0
281
     0
  0
CLASS
  1
IMAGEDEF_REACTOR
  2
AcDbRasterImageDefReactor
  3
ISM
 90
        1
280
     0
281
     0
  0
CLASS
  1
IDBUFFER
  2
AcDbIdBuffer
  3
"Acad"
 90
        0
280
     0
281
     0
  0
CLASS
  1
SPATIAL_FILTER
  2
AcDbSpatialFilter
  3
"Acad"
 90
        0
280
     0
281
     0
  0
CLASS
  1
XRECORD
  2
AcDbXrecord
  3
"<Built In>"
 90
        0
280
     0
281
     0
  0
CLASS
  1
SORTENTSTABLE
  2
AcDbSortentsTable
  3
"AutoCAD"
 90
        0
280
     0
281
     0
  0
CLASS
  1
LAYER_INDEX
  2
AcDbLayerIndex
  3
"Acad"
 90
        0
280
     0
281
     0
  0
CLASS
  1
SPATIAL_INDEX
  2
AcDbSpatialIndex
  3
"Acad"
 90
        0
280
     0
281
     0
  0
CLASS
  1
OBJECT_PTR
  2
CAseDLPNTableRecord
  3
"ASE-LPNTableRecord"
 90
        1
280
     0
281
     0
  0
CLASS
  1
LAYOUT
  2
AcDbLayout
  3
"AutoCAD 2000"
 90
        1
280
     0
281
     0
  0
CLASS
  1
PLOTSETTINGS
  2
AcDbPlotSettings
  3
"AutoCAD 2000"
 90
        1
280
     0
281
     0
  0
CLASS
  1
ACDBDICTIONARYWDFLT
  2
AcDbDictionaryWithDefault
  3
"AutoCAD 2000"
 90
        1
280
     0
281
     0
  0
CLASS
  1
ACDBPLACEHOLDER
  2
AcDbPlaceHolder
  3
"AutoCAD 2000"
 90
        1
280
     0
281
     0
  0
CLASS
  1
VBA_PROJECT
  2
AcDbVbaProject
  3
"acadvba"
 90
        1
280
     0
281
     0
  0
CLASS
  1
WIPEOUT
  2
AcDbWipeout
  3
WipeOut|AutoCAD Express Tool|expresstools@autodesk.com
 90
      127
280
     0
281
     1
  0
CLASS
  1
WIPEOUTVARIABLES
  2
AcDbWipeoutVariables
  3
WipeOut|AutoCAD Express Tool|expresstools@autodesk.com
 90
        0
280
     0
281
     0
  0
CLASS
  1
RTEXT
  2
RText
  3
RText|AutoCAD Express Tool|expresstools@autodesk.com
 90
        0
280
     0
281
     1
  0
CLASS
  1
ARCALIGNEDTEXT
  2
AcDbArcAlignedText
  3
ATEXT|AutoCAD Express Tool|expresstools@autodesk.com
 90
        0
280
     0
281
     1
  0
ENDSEC
  0
SECTION
  2
TABLES
  0
TABLE
  2
VPORT
  5
7
100
AcDbSymbolTable
 70
     1
  0
VPORT
  5
15
100
AcDbSymbolTableRecord
100
AcDbViewportTableRecord
  2
*ACTIVE
 70
     0
 10
0.0
 20
0.0
 11
1.0
 21
1.0
 12
6.591288
 22
4.579184
 13
0.0
 23
0.0
 14
1.0
 24
1.0
 15
0.0
 25
0.0
 16
0.0
 26
0.0
 36
1.0
 17
0.0
 27
0.0
 37
0.0
 40
9.158369
 41
0.688564
 42
50.0
 43
0.0
 44
0.0
 50
0.0
 51
0.0
 71
     0
 72
   100
 73
     1
 74
     1
 75
     0
 76
     0
 77
     0
 78
     0
281
     0
 65
     0
110
0.0
120
0.0
130
0.0
111
1.0
121
0.0
131
0.0
112
0.0
122
1.0
132
0.0
345
0
346
0
 79
     0
146
0.0
  0
ENDTAB
  0
TABLE
  2
LTYPE
  5
4
100
AcDbSymbolTable
 70
     3
  0
LTYPE
  5
11
100
AcDbSymbolTableRecord
100
AcDbLinetypeTableRecord
  2
ByBlock
 70
    64
  3

 72
    65
 73
     0
 40
0.0
  0
LTYPE
  5
12
100
AcDbSymbolTableRecord
100
AcDbLinetypeTableRecord
  2
ByLayer
 70
    64
  3

 72
    65
 73
     0
 40
0.0
  0
LTYPE
  5
13
100
AcDbSymbolTableRecord
100
AcDbLinetypeTableRecord
  2
Continuous
 70
    64
  3
Solid line
 72
    65
 73
     0
 40
0.0
  0
ENDTAB
  0
TABLE
  2
LAYER
  5
2
100
AcDbSymbolTable
 70
     2
  0
LAYER
  5
14
100
AcDbSymbolTableRecord
100
AcDbLayerTableRecord
  2
0
 70
     0
 62
     7
  6
Continuous
290
     1
370
    -3
390
1D
  0
LAYER
  5
28
100
AcDbSymbolTableRecord
100
AcDbLayerTableRecord
  2
EBENE_1
 70
     0
 62
   160
  6
Continuous
290
     1
370
    -3
390
1F
  0
ENDTAB
  0
TABLE
  2
STYLE
  5
3
100
AcDbSymbolTable
 70
     5
  0
STYLE
  5
17
100
AcDbSymbolTableRecord
100
AcDbTextStyleTableRecord
  2
Standard
 70
     0
 40
0.0
 41
1.0
 50
0.0
 71
     0
 42
0.0
  3
txt
  4

  0
STYLE
  5
24
100
AcDbSymbolTableRecord
100
AcDbTextStyleTableRecord
  2
STD
 70
     0
 40
0.0
 41
1.0
 50
0.0
 71
     0
 42
0.0
  3
txt
  4

  0
STYLE
  5
25
100
AcDbSymbolTableRecord
100
AcDbTextStyleTableRecord
  2
TATESTD
 70
     4
 40
0.0
 41
1.0
 50
0.0
 71
     0
 42
0.0
  3
txt
  4

  0
STYLE
  5
26
100
AcDbSymbolTableRecord
100
AcDbTextStyleTableRecord
  2
KANJISTD
 70
     0
 40
0.0
 41
1.0
 50
0.0
 71
     0
 42
0.0
  3
txt
  4
extfont
  0
STYLE
  5
27
100
AcDbSymbolTableRecord
100
AcDbTextStyleTableRecord
  2
KANJITATE
 70
     4
 40
0.0
 41
1.0
 50
0.0
 71
     0
 42
0.0
  3
txt
  4
extfont
  0
ENDTAB
  0
TABLE
  2
VIEW
  5
5
100
AcDbSymbolTable
 70
     0
  0
ENDTAB
  0
TABLE
  2
UCS
  5
6
100
AcDbSymbolTable
 70
     0
  0
ENDTAB
  0
TABLE
  2
APPID
  5
8
100
AcDbSymbolTable
 70
     1
  0
APPID
  5
16
100
AcDbSymbolTableRecord
100
AcDbRegAppTableRecord
  2
ACAD
 70
     0
  0
ENDTAB
  0
TABLE
  2
DIMSTYLE
  5
9
100
AcDbSymbolTable
 70
     1
100
AcDbDimStyleTable
 71
     0
  0
DIMSTYLE
105
18
100
AcDbSymbolTableRecord
100
AcDbDimStyleTableRecord
  2
Standard
 70
     0
  3

  4

 40
1.0
 41
0.18
 42
0.0625
 43
0.38
 44
0.18
 45
0.0
 46
0.0
 47
0.0
 48
0.0
 71
     0
 72
     0
 73
     1
 74
     1
 75
     0
 76
     0
 77
     0
 78
     0
 79
     0
140
0.18
141
0.09
142
0.0
143
25.4
144
1.0
145
0.0
146
1.0
147
0.09
148
0.0
170
     0
171
     2
172
     0
173
     0
174
     0
175
     0
176
     0
177
     0
178
     0
179
     0
271
     4
272
     4
273
     2
274
     2
275
     0
276
     0
277
     2
278
    46
279
     0
280
     0
281
     0
282
     0
283
     1
284
     0
285
     0
286
     0
288
     0
340
17
341
0
342
0
343
0
344
0
371
    -2
372
    -2
  0
ENDTAB
  0
TABLE
  2
BLOCK_RECORD
  5
1
100
AcDbSymbolTable
 70
     1
  0
BLOCK_RECORD
  5
A
100
AcDbSymbolTableRecord
100
AcDbBlockTableRecord
  2
*MODEL_SPACE
340
20
  0
BLOCK_RECORD
  5
B
100
AcDbSymbolTableRecord
100
AcDbBlockTableRecord
  2
*PAPER_SPACE
340
21
  0
BLOCK_RECORD
  5
39
100
AcDbSymbolTableRecord
100
AcDbBlockTableRecord
  2
AI9-BLK1
340
0
  0
ENDTAB
  0
ENDSEC
  0
SECTION
  2
BLOCKS
  0
BLOCK
  5
D
100
AcDbEntity
  8
0
100
AcDbBlockBegin
  2
*MODEL_SPACE
 70
     0
 10
0.0
 20
0.0
 30
0.0
  3
*MODEL_SPACE
  1

  0
ENDBLK
  5
E
100
AcDbEntity
  8
0
100
AcDbBlockEnd
  0
BLOCK
  5
F
100
AcDbEntity
 67
     1
  8
0
100
AcDbBlockBegin
  2
*PAPER_SPACE
 70
     0
 10
0.0
 20
0.0
 30
0.0
  3
*PAPER_SPACE
  1

  0
ENDBLK
  5
10
100
AcDbEntity
 67
     1
  8
0
100
AcDbBlockEnd
  0
BLOCK
  5
3B
100
AcDbEntity
  8
EBENE_1
 62
     7
100
AcDbBlockBegin
  2
AI9-BLK1
 70
     0
 10
0.0
 20
0.0
 30
0.0
  3
AI9-BLK1
  1

  0
LINE
  5
113
100
AcDbEntity
  8
EBENE_1
 62
   250
100
AcDbLine
 10
45.087515
 20
-3.737584
 30
0.0
 11
34.91277
 21
-3.766867
 31
0.0
  0
LINE
  5
112
100
AcDbEntity
  8
EBENE_1
 62
   250
100
AcDbLine
 10
43.424223
 20
-5.384684
 30
0.0
 11
43.424223
 21
-19.384519
 31
0.0
  0
LINE
  5
111
100
AcDbEntity
  8
EBENE_1
 62
   250
100
AcDbLine
 10
42.424456
 20
-19.384519
 30
0.0
 11
42.424456
 21
-5.384684
 31
0.0
  0
LINE
  5
110
100
AcDbEntity
  8
EBENE_1
 62
   250
100
AcDbLine
 10
41.424
 20
-5.384684
 30
0.0
 11
41.424
 21
-19.384519
 31
0.0
  0
LINE
  5
10F
100
AcDbEntity
  8
EBENE_1
 62
   250
100
AcDbLine
 10
40.424234
 20
-5.384684
 30
0.0
 11
40.424234
 21
-19.384519
 31
0.0
  0
POLYLINE
  5
FA
100
AcDbEntity
  8
EBENE_1
 62
   250
100
AcDb2dPolyline
 66
     1
 10
0.0
 20
0.0
 30
0.0
 70
     1
  0
VERTEX
  5
FB
100
AcDbEntity
  8
EBENE_1
 62
   250
100
AcDbVertex
100
AcDb2dVertex
 10
43.424223
 20
-19.384519
 30
0.0
  0
VERTEX
  5
FC
100
AcDbEntity
  8
EBENE_1
 62
   250
100
AcDbVertex
100
AcDb2dVertex
 10
44.924217
 20
-19.384519
 30
0.0
  0
VERTEX
  5
FD
100
AcDbEntity
  8
EBENE_1
 62
   250
100
AcDbVertex
100
AcDb2dVertex
 10
44.924217
 20
-5.384684
 30
0.0
  0
VERTEX
  5
FE
100
AcDbEntity
  8
EBENE_1
 62
   250
100
AcDbVertex
100
AcDb2dVertex
 10
43.424223
 20
-5.384684
 30
0.0
  0
VERTEX
  5
FF
100
AcDbEntity
  8
EBENE_1
 62
   250
100
AcDbVertex
100
AcDb2dVertex
 10
42.923995
 20
-4.884456
 30
0.0
  0
VERTEX
  5
100
100
AcDbEntity
  8
EBENE_1
 62
   250
100
AcDbVertex
100
AcDb2dVertex
 10
42.424456
 20
-5.384684
 30
0.0
  0
VERTEX
  5
101
100
AcDbEntity
  8
EBENE_1
 62
   250
100
AcDbVertex
100
AcDb2dVertex
 10
41.924228
 20
-4.884456
 30
0.0
  0
VERTEX
  5
102
100
AcDbEntity
  8
EBENE_1
 62
   250
100
AcDbVertex
100
AcDb2dVertex
 10
41.424
 20
-5.384684
 30
0.0
  0
VERTEX
  5
103
100
AcDbEntity
  8
EBENE_1
 62
   250
100
AcDbVertex
100
AcDb2dVertex
 10
40.924462
 20
-4.884456
 30
0.0
  0
VERTEX
  5
104
100
AcDbEntity
  8
EBENE_1
 62
   250
100
AcDbVertex
100
AcDb2dVertex
 10
40.424234
 20
-5.384684
 30
0.0
  0
VERTEX
  5
105
100
AcDbEntity
  8
EBENE_1
 62
   250
100
AcDbVertex
100
AcDb2dVertex
 10
34.924139
 20
-5.384684
 30
0.0
  0
VERTEX
  5
106
100
AcDbEntity
  8
EBENE_1
 62
   250
100
AcDbVertex
100
AcDb2dVertex
 10
34.924139
 20
-19.384519
 30
0.0
  0
VERTEX
  5
107
100
AcDbEntity
  8
EBENE_1
 62
   250
100
AcDbVertex
100
AcDb2dVertex
 10
40.424234
 20
-19.384519
 30
0.0
  0
VERTEX
  5
108
100
AcDbEntity
  8
EBENE_1
 62
   250
100
AcDbVertex
100
AcDb2dVertex
 10
40.924462
 20
-19.884402
 30
0.0
  0
VERTEX
  5
109
100
AcDbEntity
  8
EBENE_1
 62
   250
100
AcDbVertex
100
AcDb2dVertex
 10
41.424
 20
-19.384519
 30
0.0
  0
VERTEX
  5
10A
100
AcDbEntity
  8
EBENE_1
 62
   250
100
AcDbVertex
100
AcDb2dVertex
 10
41.924228
 20
-19.884402
 30
0.0
  0
VERTEX
  5
10B
100
AcDbEntity
  8
EBENE_1
 62
   250
100
AcDbVertex
100
AcDb2dVertex
 10
42.424456
 20
-19.384519
 30
0.0
  0
VERTEX
  5
10C
100
AcDbEntity
  8
EBENE_1
 62
   250
100
AcDbVertex
100
AcDb2dVertex
 10
42.923995
 20
-19.884402
 30
0.0
  0
VERTEX
  5
10D
100
AcDbEntity
  8
EBENE_1
 62
   250
100
AcDbVertex
100
AcDb2dVertex
 10
43.424223
 20
-19.384519
 30
0.0
  0
SEQEND
  5
10E
100
AcDbEntity
  8
EBENE_1
 62
   250
  0
POLYLINE
  5
F4
100
AcDbEntity
  8
EBENE_1
 62
   250
100
AcDb2dPolyline
 66
     1
 10
0.0
 20
0.0
 30
0.0
 70
     1
  0
VERTEX
  5
F5
100
AcDbEntity
  8
EBENE_1
 62
   250
100
AcDbVertex
100
AcDb2dVertex
 10
33.924028
 20
-16.38453
 30
0.0
  0
VERTEX
  5
F6
100
AcDbEntity
  8
EBENE_1
 62
   250
100
AcDbVertex
100
AcDb2dVertex
 10
34.924139
 20
-16.38453
 30
0.0
  0
VERTEX
  5
F7
100
AcDbEntity
  8
EBENE_1
 62
   250
100
AcDbVertex
100
AcDb2dVertex
 10
34.924139
 20
-8.384673
 30
0.0
  0
VERTEX
  5
F8
100
AcDbEntity
  8
EBENE_1
 62
   250
100
AcDbVertex
100
AcDb2dVertex
 10
33.924028
 20
-8.384673
 30
0.0
  0
SEQEND
  5
F9
100
AcDbEntity
  8
EBENE_1
 62
   250
  0
LINE
  5
F3
100
AcDbEntity
  8
EBENE_1
 62
   250
100
AcDbLine
 10
-20.087491
 20
-8.749854
 30
0.0
 11
-13.587629
 21
-8.749854
 31
0.0
  0
LINE
  5
F2
100
AcDbEntity
  8
EBENE_1
 62
   250
100
AcDbLine
 10
-20.087491
 20
-26.749788
 30
0.0
 11
-13.587629
 21
-26.749788
 31
0.0
  0
LINE
  5
F1
100
AcDbEntity
  8
EBENE_1
 62
   250
100
AcDbLine
 10
-21.087602
 20
-27.7499
 30
0.0
 11
-21.087602
 21
-29.249894
 31
0.0
  0
LINE
  5
F0
100
AcDbEntity
  8
EBENE_1
 62
   250
100
AcDbLine
 10
-23.08748
 20
-24.74991
 30
0.0
 11
-23.08748
 21
-27.7499
 31
0.0
  0
LINE
  5
EF
100
AcDbEntity
  8
EBENE_1
 62
   250
100
AcDbLine
 10
-25.087358
 20
-21.249693
 30
0.0
 11
-25.087358
 21
-26.249905
 31
0.0
  0
LINE
  5
EE
100
AcDbEntity
  8
EBENE_1
 62
   250
100
AcDbLine
 10
-27.08758
 20
-17.749821
 30
0.0
 11
-27.08758
 21
-26.249905
 31
0.0
  0
LINE
  5
ED
100
AcDbEntity
  8
EBENE_1
 62
   250
100
AcDbLine
 10
-25.087358
 20
8.750198
 30
0.0
 11
-25.087358
 21
-12.249726
 31
0.0
  0
LINE
  5
EC
100
AcDbEntity
  8
EBENE_1
 62
   250
100
AcDbLine
 10
-23.08748
 20
8.750198
 30
0.0
 11
-23.08748
 21
-9.749965
 31
0.0
  0
LINE
  5
EB
100
AcDbEntity
  8
EBENE_1
 62
   250
100
AcDbLine
 10
-21.087602
 20
8.750198
 30
0.0
 11
-21.087602
 21
-6.749976
 31
0.0
  0
POLYLINE
  5
E6
100
AcDbEntity
  8
EBENE_1
 62
   250
100
AcDb2dPolyline
 66
     1
 10
0.0
 20
0.0
 30
0.0
  0
VERTEX
  5
E7
100
AcDbEntity
  8
EBENE_1
 62
   250
100
AcDbVertex
100
AcDb2dVertex
 10
-20.087491
 20
-5.749864
 30
0.0
  0
VERTEX
  5
E8
100
AcDbEntity
  8
EBENE_1
 62
   250
100
AcDbVertex
100
AcDb2dVertex
 10
-28.087347
 20
-16.249826
 30
0.0
  0
VERTEX
  5
E9
100
AcDbEntity
  8
EBENE_1
 62
   250
100
AcDbVertex
100
AcDb2dVertex
 10
-20.087491
 20
-29.249894
 30
0.0
  0
SEQEND
  5
EA
100
AcDbEntity
  8
EBENE_1
 62
   250
  0
POLYLINE
  5
CE
100
AcDbEntity
  8
EBENE_1
 62
   250
100
AcDb2dPolyline
 66
     1
 10
0.0
 20
0.0
 30
0.0
  0
VERTEX
  5
CF
100
AcDbEntity
  8
EBENE_1
 62
   250
100
AcDbVertex
100
AcDb2dVertex
 10
-45.087515
 20
29.750122
 30
0.0
  0
VERTEX
  5
D0
100
AcDbEntity
  8
EBENE_1
 62
   250
100
AcDbVertex
100
AcDb2dVertex
 10
-45.087515
 20
22.750033
 30
0.0
  0
VERTEX
  5
D1
100
AcDbEntity
  8
EBENE_1
 62
   250
100
AcDbVertex
100
AcDb2dVertex
 10
-44.587632
 20
22.250149
 30
0.0
  0
VERTEX
  5
D2
100
AcDbEntity
  8
EBENE_1
 62
   250
100
AcDbVertex
100
AcDb2dVertex
 10
-45.087515
 20
21.749921
 30
0.0
  0
VERTEX
  5
D3
100
AcDbEntity
  8
EBENE_1
 62
   250
100
AcDbVertex
100
AcDb2dVertex
 10
-44.587632
 20
21.250038
 30
0.0
  0
VERTEX
  5
D4
100
AcDbEntity
  8
EBENE_1
 62
   250
100
AcDbVertex
100
AcDb2dVertex
 10
-45.087515
 20
20.750155
 30
0.0
  0
VERTEX
  5
D5
100
AcDbEntity
  8
EBENE_1
 62
   250
100
AcDbVertex
100
AcDb2dVertex
 10
-44.587632
 20
20.249927
 30
0.0
  0
VERTEX
  5
D6
100
AcDbEntity
  8
EBENE_1
 62
   250
100
AcDbVertex
100
AcDb2dVertex
 10
-45.087515
 20
19.750043
 30
0.0
  0
VERTEX
  5
D7
100
AcDbEntity
  8
EBENE_1
 62
   250
100
AcDbVertex
100
AcDb2dVertex
 10
-45.087515
 20
-30.250005
 30
0.0
  0
VERTEX
  5
D8
100
AcDbEntity
  8
EBENE_1
 62
   250
100
AcDbVertex
100
AcDb2dVertex
 10
-20.087491
 20
-30.250005
 30
0.0
  0
VERTEX
  5
D9
100
AcDbEntity
  8
EBENE_1
 62
   250
100
AcDbVertex
100
AcDb2dVertex
 10
-20.087491
 20
10.750076
 30
0.0
  0
VERTEX
  5
DA
100
AcDbEntity
  8
EBENE_1
 62
   250
100
AcDbVertex
100
AcDb2dVertex
 10
-21.087602
 20
11.750187
 30
0.0
  0
VERTEX
  5
DB
100
AcDbEntity
  8
EBENE_1
 62
   250
100
AcDbVertex
100
AcDb2dVertex
 10
-21.087602
 20
15.25006
 30
0.0
  0
VERTEX
  5
DC
100
AcDbEntity
  8
EBENE_1
 62
   250
100
AcDbVertex
100
AcDb2dVertex
 10
-20.087491
 20
16.250171
 30
0.0
  0
VERTEX
  5
DD
100
AcDbEntity
  8
EBENE_1
 62
   250
100
AcDbVertex
100
AcDb2dVertex
 10
-20.087491
 20
19.750043
 30
0.0
  0
VERTEX
  5
DE
100
AcDbEntity
  8
EBENE_1
 62
   250
100
AcDbVertex
100
AcDb2dVertex
 10
-20.587374
 20
20.249927
 30
0.0
  0
VERTEX
  5
DF
100
AcDbEntity
  8
EBENE_1
 62
   250
100
AcDbVertex
100
AcDb2dVertex
 10
-20.087491
 20
20.750155
 30
0.0
  0
VERTEX
  5
E0
100
AcDbEntity
  8
EBENE_1
 62
   250
100
AcDbVertex
100
AcDb2dVertex
 10
-20.587374
 20
21.250038
 30
0.0
  0
VERTEX
  5
E1
100
AcDbEntity
  8
EBENE_1
 62
   250
100
AcDbVertex
100
AcDb2dVertex
 10
-20.087491
 20
21.749921
 30
0.0
  0
VERTEX
  5
E2
100
AcDbEntity
  8
EBENE_1
 62
   250
100
AcDbVertex
100
AcDb2dVertex
 10
-20.587374
 20
22.250149
 30
0.0
  0
VERTEX
  5
E3
100
AcDbEntity
  8
EBENE_1
 62
   250
100
AcDbVertex
100
AcDb2dVertex
 10
-20.087491
 20
22.750033
 30
0.0
  0
VERTEX
  5
E4
100
AcDbEntity
  8
EBENE_1
 62
   250
100
AcDbVertex
100
AcDb2dVertex
 10
-20.087491
 20
29.750122
 30
0.0
  0
SEQEND
  5
E5
100
AcDbEntity
  8
EBENE_1
 62
   250
  0
LINE
  5
CD
100
AcDbEntity
  8
EBENE_1
 62
   250
100
AcDbLine
 10
-22.587596
 20
19.750043
 30
0.0
 11
-22.587596
 21
9.749965
 31
0.0
  0
LINE
  5
CC
100
AcDbEntity
  8
EBENE_1
 62
   250
100
AcDbLine
 10
-24.087591
 20
19.750043
 30
0.0
 11
-24.087591
 21
9.749965
 31
0.0
  0
LINE
  5
CB
100
AcDbEntity
  8
EBENE_1
 62
   250
100
AcDbLine
 10
-25.587585
 20
19.750043
 30
0.0
 11
-25.587585
 21
9.749965
 31
0.0
  0
LINE
  5
CA
100
AcDbEntity
  8
EBENE_1
 62
   250
100
AcDbLine
 10
-27.08758
 20
19.750043
 30
0.0
 11
-27.08758
 21
9.749965
 31
0.0
  0
LINE
  5
C9
100
AcDbEntity
  8
EBENE_1
 62
   250
100
AcDbLine
 10
-28.587575
 20
19.750043
 30
0.0
 11
-28.587575
 21
9.749965
 31
0.0
  0
LINE
  5
C8
100
AcDbEntity
  8
EBENE_1
 62
   250
100
AcDbLine
 10
-30.087569
 20
19.750043
 30
0.0
 11
-30.087569
 21
9.749965
 31
0.0
  0
LINE
  5
C7
100
AcDbEntity
  8
EBENE_1
 62
   250
100
AcDbLine
 10
-31.587564
 20
19.750043
 30
0.0
 11
-31.587564
 21
9.749965
 31
0.0
  0
LINE
  5
C6
100
AcDbEntity
  8
EBENE_1
 62
   250
100
AcDbLine
 10
-33.087558
 20
19.750043
 30
0.0
 11
-33.087558
 21
9.749965
 31
0.0
  0
LINE
  5
C5
100
AcDbEntity
  8
EBENE_1
 62
   250
100
AcDbLine
 10
-34.587553
 20
19.750043
 30
0.0
 11
-34.587553
 21
9.749965
 31
0.0
  0
LINE
  5
C4
100
AcDbEntity
  8
EBENE_1
 62
   250
100
AcDbLine
 10
-36.087547
 20
19.750043
 30
0.0
 11
-36.087547
 21
9.749965
 31
0.0
  0
LINE
  5
C3
100
AcDbEntity
  8
EBENE_1
 62
   250
100
AcDbLine
 10
-37.587542
 20
19.750043
 30
0.0
 11
-37.587542
 21
9.749965
 31
0.0
  0
LINE
  5
C2
100
AcDbEntity
  8
EBENE_1
 62
   250
100
AcDbLine
 10
-39.087537
 20
19.750043
 30
0.0
 11
-39.087537
 21
9.749965
 31
0.0
  0
LINE
  5
C1
100
AcDbEntity
  8
EBENE_1
 62
   250
100
AcDbLine
 10
-40.587531
 20
19.750043
 30
0.0
 11
-40.587531
 21
9.749965
 31
0.0
  0
LINE
  5
C0
100
AcDbEntity
  8
EBENE_1
 62
   250
100
AcDbLine
 10
-42.087526
 20
19.750043
 30
0.0
 11
-42.087526
 21
9.749965
 31
0.0
  0
LINE
  5
BF
100
AcDbEntity
  8
EBENE_1
 62
   250
100
AcDbLine
 10
-43.58752
 20
19.750043
 30
0.0
 11
-43.58752
 21
9.749965
 31
0.0
  0
LINE
  5
BE
100
AcDbEntity
  8
EBENE_1
 62
   250
100
AcDbLine
 10
-45.087515
 20
8.750198
 30
0.0
 11
-20.087491
 21
8.750198
 31
0.0
  0
POLYLINE
  5
B9
100
AcDbEntity
  8
EBENE_1
 62
   250
100
AcDb2dPolyline
 66
     1
 10
0.0
 20
0.0
 30
0.0
  0
VERTEX
  5
BA
100
AcDbEntity
  8
EBENE_1
 62
   250
100
AcDbVertex
100
AcDb2dVertex
 10
-45.087515
 20
8.750198
 30
0.0
  0
VERTEX
  5
BB
100
AcDbEntity
  8
EBENE_1
 62
   250
100
AcDbVertex
100
AcDb2dVertex
 10
-45.087515
 20
-30.250005
 30
0.0
  0
VERTEX
  5
BC
100
AcDbEntity
  8
EBENE_1
 62
   250
100
AcDbVertex
100
AcDb2dVertex
 10
0.912434
 20
-30.250005
 30
0.0
  0
SEQEND
  5
BD
100
AcDbEntity
  8
EBENE_1
 62
   250
  0
POLYLINE
  5
B4
100
AcDbEntity
  8
EBENE_1
 62
   250
100
AcDb2dPolyline
 66
     1
 10
0.0
 20
0.0
 30
0.0
  0
VERTEX
  5
B5
100
AcDbEntity
  8
EBENE_1
 62
   250
100
AcDbVertex
100
AcDb2dVertex
 10
0.912434
 20
-5.249981
 30
0.0
  0
VERTEX
  5
B6
100
AcDbEntity
  8
EBENE_1
 62
   250
100
AcDbVertex
100
AcDb2dVertex
 10
-20.087491
 20
-5.249981
 30
0.0
  0
VERTEX
  5
B7
100
AcDbEntity
  8
EBENE_1
 62
   250
100
AcDbVertex
100
AcDb2dVertex
 10
-20.087491
 20
8.750198
 30
0.0
  0
SEQEND
  5
B8
100
AcDbEntity
  8
EBENE_1
 62
   250
  0
LINE
  5
B3
100
AcDbEntity
  8
EBENE_1
 62
   250
100
AcDbLine
 10
3.913112
 20
-6.749976
 30
0.0
 11
15.913068
 21
-6.749976
 31
0.0
  0
LINE
  5
B2
100
AcDbEntity
  8
EBENE_1
 62
   250
100
AcDbLine
 10
3.913112
 20
-6.249748
 30
0.0
 11
15.913068
 21
-6.249748
 31
0.0
  0
LINE
  5
B1
100
AcDbEntity
  8
EBENE_1
 62
   250
100
AcDbLine
 10
3.913112
 20
-8.24997
 30
0.0
 11
15.913068
 21
-8.24997
 31
0.0
  0
LINE
  5
B0
100
AcDbEntity
  8
EBENE_1
 62
   250
100
AcDbLine
 10
3.913112
 20
-7.749742
 30
0.0
 11
15.913068
 21
-7.749742
 31
0.0
  0
LINE
  5
AF
100
AcDbEntity
  8
EBENE_1
 62
   250
100
AcDbLine
 10
3.913112
 20
-9.749965
 30
0.0
 11
15.913068
 21
-9.749965
 31
0.0
  0
LINE
  5
AE
100
AcDbEntity
  8
EBENE_1
 62
   250
100
AcDbLine
 10
3.913112
 20
-9.249737
 30
0.0
 11
15.913068
 21
-9.249737
 31
0.0
  0
LINE
  5
AD
100
AcDbEntity
  8
EBENE_1
 62
   250
100
AcDbLine
 10
3.913112
 20
-11.249959
 30
0.0
 11
15.913068
 21
-11.249959
 31
0.0
  0
LINE
  5
AC
100
AcDbEntity
  8
EBENE_1
 62
   250
100
AcDbLine
 10
3.913112
 20
-10.749731
 30
0.0
 11
15.913068
 21
-10.749731
 31
0.0
  0
LINE
  5
AB
100
AcDbEntity
  8
EBENE_1
 62
   250
100
AcDbLine
 10
3.913112
 20
-12.749954
 30
0.0
 11
15.913068
 21
-12.749954
 31
0.0
  0
LINE
  5
AA
100
AcDbEntity
  8
EBENE_1
 62
   250
100
AcDbLine
 10
3.913112
 20
-12.249726
 30
0.0
 11
15.913068
 21
-12.249726
 31
0.0
  0
LINE
  5
A9
100
AcDbEntity
  8
EBENE_1
 62
   250
100
AcDbLine
 10
3.913112
 20
-14.249948
 30
0.0
 11
15.913068
 21
-14.249948
 31
0.0
  0
LINE
  5
A8
100
AcDbEntity
  8
EBENE_1
 62
   250
100
AcDbLine
 10
3.913112
 20
-13.749721
 30
0.0
 11
15.913068
 21
-13.749721
 31
0.0
  0
LINE
  5
A7
100
AcDbEntity
  8
EBENE_1
 62
   250
100
AcDbLine
 10
3.913112
 20
-15.749943
 30
0.0
 11
15.913068
 21
-15.749943
 31
0.0
  0
LINE
  5
A6
100
AcDbEntity
  8
EBENE_1
 62
   250
100
AcDbLine
 10
3.913112
 20
-15.249715
 30
0.0
 11
15.913068
 21
-15.249715
 31
0.0
  0
LINE
  5
A5
100
AcDbEntity
  8
EBENE_1
 62
   250
100
AcDbLine
 10
3.913112
 20
-17.249938
 30
0.0
 11
15.913068
 21
-17.249938
 31
0.0
  0
LINE
  5
A4
100
AcDbEntity
  8
EBENE_1
 62
   250
100
AcDbLine
 10
3.913112
 20
-16.74971
 30
0.0
 11
15.913068
 21
-16.74971
 31
0.0
  0
LINE
  5
A3
100
AcDbEntity
  8
EBENE_1
 62
   250
100
AcDbLine
 10
3.913112
 20
-18.749932
 30
0.0
 11
15.913068
 21
-18.749932
 31
0.0
  0
LINE
  5
A2
100
AcDbEntity
  8
EBENE_1
 62
   250
100
AcDbLine
 10
3.913112
 20
-18.249704
 30
0.0
 11
15.913068
 21
-18.249704
 31
0.0
  0
LINE
  5
A1
100
AcDbEntity
  8
EBENE_1
 62
   250
100
AcDbLine
 10
3.913112
 20
-20.249927
 30
0.0
 11
15.913068
 21
-20.249927
 31
0.0
  0
LINE
  5
A0
100
AcDbEntity
  8
EBENE_1
 62
   250
100
AcDbLine
 10
3.913112
 20
-19.749699
 30
0.0
 11
15.913068
 21
-19.749699
 31
0.0
  0
LINE
  5
9F
100
AcDbEntity
  8
EBENE_1
 62
   250
100
AcDbLine
 10
3.913112
 20
-21.749921
 30
0.0
 11
15.913068
 21
-21.749921
 31
0.0
  0
LINE
  5
9E
100
AcDbEntity
  8
EBENE_1
 62
   250
100
AcDbLine
 10
3.913112
 20
-21.249693
 30
0.0
 11
15.913068
 21
-21.249693
 31
0.0
  0
LINE
  5
9D
100
AcDbEntity
  8
EBENE_1
 62
   250
100
AcDbLine
 10
3.913112
 20
-23.249916
 30
0.0
 11
15.913068
 21
-23.249916
 31
0.0
  0
LINE
  5
9C
100
AcDbEntity
  8
EBENE_1
 62
   250
100
AcDbLine
 10
3.913112
 20
-22.749688
 30
0.0
 11
15.913068
 21
-22.749688
 31
0.0
  0
LINE
  5
9B
100
AcDbEntity
  8
EBENE_1
 62
   250
100
AcDbLine
 10
3.913112
 20
-24.74991
 30
0.0
 11
15.913068
 21
-24.74991
 31
0.0
  0
LINE
  5
9A
100
AcDbEntity
  8
EBENE_1
 62
   250
100
AcDbLine
 10
3.913112
 20
-24.249683
 30
0.0
 11
15.913068
 21
-24.249683
 31
0.0
  0
LINE
  5
99
100
AcDbEntity
  8
EBENE_1
 62
   250
100
AcDbLine
 10
3.913112
 20
-26.249905
 30
0.0
 11
15.913068
 21
-26.249905
 31
0.0
  0
LINE
  5
98
100
AcDbEntity
  8
EBENE_1
 62
   250
100
AcDbLine
 10
3.913112
 20
-25.750022
 30
0.0
 11
15.913068
 21
-25.750022
 31
0.0
  0
LINE
  5
97
100
AcDbEntity
  8
EBENE_1
 62
   250
100
AcDbLine
 10
3.913112
 20
-27.7499
 30
0.0
 11
15.913068
 21
-27.7499
 31
0.0
  0
LINE
  5
96
100
AcDbEntity
  8
EBENE_1
 62
   250
100
AcDbLine
 10
3.913112
 20
-27.250016
 30
0.0
 11
15.913068
 21
-27.250016
 31
0.0
  0
LINE
  5
95
100
AcDbEntity
  8
EBENE_1
 62
   250
100
AcDbLine
 10
3.913112
 20
-29.249894
 30
0.0
 11
15.913068
 21
-29.249894
 31
0.0
  0
LINE
  5
94
100
AcDbEntity
  8
EBENE_1
 62
   250
100
AcDbLine
 10
3.913112
 20
-28.750011
 30
0.0
 11
15.913068
 21
-28.750011
 31
0.0
  0
LINE
  5
93
100
AcDbEntity
  8
EBENE_1
 62
   250
100
AcDbLine
 10
16.912835
 20
-30.250005
 30
0.0
 11
34.91277
 21
-30.250005
 31
0.0
  0
LINE
  5
92
100
AcDbEntity
  8
EBENE_1
 62
   250
100
AcDbLine
 10
16.912835
 20
-29.249894
 30
0.0
 11
34.91277
 21
-29.249894
 31
0.0
  0
LINE
  5
91
100
AcDbEntity
  8
EBENE_1
 62
   250
100
AcDbLine
 10
16.912835
 20
-27.250016
 30
0.0
 11
34.91277
 21
-27.250016
 31
0.0
  0
LINE
  5
90
100
AcDbEntity
  8
EBENE_1
 62
   250
100
AcDbLine
 10
16.912835
 20
-26.249905
 30
0.0
 11
34.91277
 21
-26.249905
 31
0.0
  0
LINE
  5
8F
100
AcDbEntity
  8
EBENE_1
 62
   250
100
AcDbLine
 10
16.912835
 20
-24.249683
 30
0.0
 11
34.91277
 21
-24.249683
 31
0.0
  0
LINE
  5
8E
100
AcDbEntity
  8
EBENE_1
 62
   250
100
AcDbLine
 10
16.912835
 20
-23.249916
 30
0.0
 11
34.91277
 21
-23.249916
 31
0.0
  0
LINE
  5
8D
100
AcDbEntity
  8
EBENE_1
 62
   250
100
AcDbLine
 10
16.912835
 20
-21.249693
 30
0.0
 11
34.91277
 21
-21.249693
 31
0.0
  0
LINE
  5
8C
100
AcDbEntity
  8
EBENE_1
 62
   250
100
AcDbLine
 10
16.912835
 20
-20.249927
 30
0.0
 11
34.91277
 21
-20.249927
 31
0.0
  0
LINE
  5
8B
100
AcDbEntity
  8
EBENE_1
 62
   250
100
AcDbLine
 10
16.912835
 20
-18.249704
 30
0.0
 11
34.91277
 21
-18.249704
 31
0.0
  0
LINE
  5
8A
100
AcDbEntity
  8
EBENE_1
 62
   250
100
AcDbLine
 10
16.912835
 20
-17.249938
 30
0.0
 11
34.91277
 21
-17.249938
 31
0.0
  0
LINE
  5
89
100
AcDbEntity
  8
EBENE_1
 62
   250
100
AcDbLine
 10
16.912835
 20
-15.249715
 30
0.0
 11
33.894055
 21
-15.249715
 31
0.0
  0
LINE
  5
88
100
AcDbEntity
  8
EBENE_1
 62
   250
100
AcDbLine
 10
16.912835
 20
-14.249948
 30
0.0
 11
33.928851
 21
-14.249948
 31
0.0
  0
LINE
  5
87
100
AcDbEntity
  8
EBENE_1
 62
   250
100
AcDbLine
 10
16.912835
 20
-12.249726
 30
0.0
 11
33.963646
 21
-12.249726
 31
0.0
  0
LINE
  5
86
100
AcDbEntity
  8
EBENE_1
 62
   250
100
AcDbLine
 10
16.912835
 20
-11.249959
 30
0.0
 11
33.86615
 21
-11.249959
 31
0.0
  0
LINE
  5
85
100
AcDbEntity
  8
EBENE_1
 62
   250
100
AcDbLine
 10
16.912835
 20
-9.249737
 30
0.0
 11
33.894055
 21
-9.249737
 31
0.0
  0
LINE
  5
84
100
AcDbEntity
  8
EBENE_1
 62
   250
100
AcDbLine
 10
16.912835
 20
-8.24997
 30
0.0
 11
34.91277
 21
-8.24997
 31
0.0
  0
LINE
  5
83
100
AcDbEntity
  8
EBENE_1
 62
   250
100
AcDbLine
 10
16.912835
 20
-6.249748
 30
0.0
 11
34.91277
 21
-6.249748
 31
0.0
  0
LINE
  5
82
100
AcDbEntity
  8
EBENE_1
 62
   250
100
AcDbLine
 10
16.912835
 20
-5.249981
 30
0.0
 11
34.91277
 21
-5.249981
 31
0.0
  0
LINE
  5
81
100
AcDbEntity
  8
EBENE_1
 62
   250
100
AcDbLine
 10
3.913112
 20
-4.749753
 30
0.0
 11
3.913112
 21
-30.749889
 31
0.0
  0
POLYLINE
  5
7B
100
AcDbEntity
  8
EBENE_1
 62
   250
100
AcDb2dPolyline
 66
     1
 10
0.0
 20
0.0
 30
0.0
  0
VERTEX
  5
7C
100
AcDbEntity
  8
EBENE_1
 62
   250
100
AcDbVertex
100
AcDb2dVertex
 10
0.912434
 20
-29.249894
 30
0.0
  0
VERTEX
  5
7D
100
AcDbEntity
  8
EBENE_1
 62
   250
100
AcDbVertex
100
AcDb2dVertex
 10
2.413117
 20
-29.249894
 30
0.0
  0
VERTEX
  5
7E
100
AcDbEntity
  8
EBENE_1
 62
   250
100
AcDbVertex
100
AcDb2dVertex
 10
3.913112
 20
-30.749889
 30
0.0
  0
VERTEX
  5
7F
100
AcDbEntity
  8
EBENE_1
 62
   250
100
AcDbVertex
100
AcDb2dVertex
 10
4.912878
 20
-30.749889
 30
0.0
  0
SEQEND
  5
80
100
AcDbEntity
  8
EBENE_1
 62
   250
  0
LINE
  5
7A
100
AcDbEntity
  8
EBENE_1
 62
   250
100
AcDbLine
 10
2.413117
 20
-29.249894
 30
0.0
 11
2.413117
 21
-6.249748
 31
0.0
  0
POLYLINE
  5
70
100
AcDbEntity
  8
EBENE_1
 62
   250
100
AcDb2dPolyline
 66
     1
 10
0.0
 20
0.0
 30
0.0
  0
VERTEX
  5
71
100
AcDbEntity
  8
EBENE_1
 62
   250
100
AcDbVertex
100
AcDb2dVertex
 10
4.912878
 20
-30.749889
 30
0.0
  0
VERTEX
  5
72
100
AcDbEntity
  8
EBENE_1
 62
   250
100
AcDbVertex
100
AcDb2dVertex
 10
15.913068
 20
-30.749889
 30
0.0
  0
VERTEX
  5
73
100
AcDbEntity
  8
EBENE_1
 62
   250
100
AcDbVertex
100
AcDb2dVertex
 10
16.912835
 20
-31.75
 30
0.0
  0
VERTEX
  5
74
100
AcDbEntity
  8
EBENE_1
 62
   250
100
AcDbVertex
100
AcDb2dVertex
 10
34.91277
 20
-31.75
 30
0.0
  0
VERTEX
  5
75
100
AcDbEntity
  8
EBENE_1
 62
   250
100
AcDbVertex
100
AcDb2dVertex
 10
34.91277
 20
-3.749986
 30
0.0
  0
VERTEX
  5
76
100
AcDbEntity
  8
EBENE_1
 62
   250
100
AcDbVertex
100
AcDb2dVertex
 10
16.912835
 20
-3.749986
 30
0.0
  0
VERTEX
  5
77
100
AcDbEntity
  8
EBENE_1
 62
   250
100
AcDbVertex
100
AcDb2dVertex
 10
15.913068
 20
-4.749753
 30
0.0
  0
VERTEX
  5
78
100
AcDbEntity
  8
EBENE_1
 62
   250
100
AcDbVertex
100
AcDb2dVertex
 10
3.913112
 20
-4.749753
 30
0.0
  0
SEQEND
  5
79
100
AcDbEntity
  8
EBENE_1
 62
   250
  0
POLYLINE
  5
6A
100
AcDbEntity
  8
EBENE_1
 62
   250
100
AcDb2dPolyline
 66
     1
 10
0.0
 20
0.0
 30
0.0
  0
VERTEX
  5
6B
100
AcDbEntity
  8
EBENE_1
 62
   250
100
AcDbVertex
100
AcDb2dVertex
 10
0.912434
 20
-6.249748
 30
0.0
  0
VERTEX
  5
6C
100
AcDbEntity
  8
EBENE_1
 62
   250
100
AcDbVertex
100
AcDb2dVertex
 10
2.413117
 20
-6.249748
 30
0.0
  0
VERTEX
  5
6D
100
AcDbEntity
  8
EBENE_1
 62
   250
100
AcDbVertex
100
AcDb2dVertex
 10
3.913112
 20
-4.749753
 30
0.0
  0
VERTEX
  5
6E
100
AcDbEntity
  8
EBENE_1
 62
   250
100
AcDbVertex
100
AcDb2dVertex
 10
4.912878
 20
-4.749753
 30
0.0
  0
SEQEND
  5
6F
100
AcDbEntity
  8
EBENE_1
 62
   250
  0
LINE
  5
69
100
AcDbEntity
  8
EBENE_1
 62
   250
100
AcDbLine
 10
0.912434
 20
-5.249981
 30
0.0
 11
0.912434
 21
-30.250005
 31
0.0
  0
LINE
  5
68
100
AcDbEntity
  8
EBENE_1
 62
   250
100
AcDbLine
 10
-10.58764
 20
-5.249981
 30
0.0
 11
-10.58764
 21
-30.250005
 31
0.0
  0
LINE
  5
67
100
AcDbEntity
  8
EBENE_1
 62
   250
100
AcDbLine
 10
15.913068
 20
-4.749753
 30
0.0
 11
15.913068
 21
-30.749889
 31
0.0
  0
LINE
  5
66
100
AcDbEntity
  8
EBENE_1
 62
   250
100
AcDbLine
 10
-13.587629
 20
-5.249981
 30
0.0
 11
-13.587629
 21
-30.250005
 31
0.0
  0
LINE
  5
65
100
AcDbEntity
  8
EBENE_1
 62
   250
100
AcDbLine
 10
-27.08758
 20
8.750198
 30
0.0
 11
-27.08758
 21
-14.749832
 31
0.0
  0
LINE
  5
64
100
AcDbEntity
  8
EBENE_1
 62
   250
100
AcDbLine
 10
-43.087637
 20
8.750198
 30
0.0
 11
-43.087637
 21
-28.750011
 31
0.0
  0
LINE
  5
63
100
AcDbEntity
  8
EBENE_1
 62
   250
100
AcDbLine
 10
-41.087415
 20
8.750198
 30
0.0
 11
-41.087415
 21
-27.250016
 31
0.0
  0
LINE
  5
62
100
AcDbEntity
  8
EBENE_1
 62
   250
100
AcDbLine
 10
-39.087537
 20
8.750198
 30
0.0
 11
-39.087537
 21
-26.249905
 31
0.0
  0
LINE
  5
61
100
AcDbEntity
  8
EBENE_1
 62
   250
100
AcDbLine
 10
-37.087314
 20
8.750198
 30
0.0
 11
-37.087314
 21
-26.249905
 31
0.0
  0
LINE
  5
60
100
AcDbEntity
  8
EBENE_1
 62
   250
100
AcDbLine
 10
-33.087558
 20
8.750198
 30
0.0
 11
-33.087558
 21
-26.249905
 31
0.0
  0
LINE
  5
5F
100
AcDbEntity
  8
EBENE_1
 62
   250
100
AcDbLine
 10
-31.087336
 20
8.750198
 30
0.0
 11
-31.087336
 21
-26.249905
 31
0.0
  0
LINE
  5
5E
100
AcDbEntity
  8
EBENE_1
 62
   250
100
AcDbLine
 10
-29.087458
 20
8.750198
 30
0.0
 11
-29.087458
 21
-26.249905
 31
0.0
  0
LINE
  5
5D
100
AcDbEntity
  8
EBENE_1
 62
   250
100
AcDbLine
 10
-35.087436
 20
8.750198
 30
0.0
 11
-35.087436
 21
-26.249905
 31
0.0
  0
POLYLINE
  5
57
100
AcDbEntity
  8
EBENE_1
 62
   250
100
AcDb2dPolyline
 66
     1
 10
0.0
 20
0.0
 30
0.0
  0
VERTEX
  5
58
100
AcDbEntity
  8
EBENE_1
 62
   250
100
AcDbVertex
100
AcDb2dVertex
 10
-45.087515
 20
-30.250005
 30
0.0
  0
VERTEX
  5
59
100
AcDbEntity
  8
EBENE_1
 62
   250
100
AcDbVertex
100
AcDb2dVertex
 10
-40.087648
 20
-26.249905
 30
0.0
  0
VERTEX
  5
5A
100
AcDbEntity
  8
EBENE_1
 62
   250
100
AcDbVertex
100
AcDb2dVertex
 10
-25.087358
 20
-26.249905
 30
0.0
  0
VERTEX
  5
5B
100
AcDbEntity
  8
EBENE_1
 62
   250
100
AcDbVertex
100
AcDb2dVertex
 10
-20.087491
 20
-30.250005
 30
0.0
  0
SEQEND
  5
5C
100
AcDbEntity
  8
EBENE_1
 62
   250
  0
LINE
  5
56
100
AcDbEntity
  8
EBENE_1
 62
   250
100
AcDbLine
 10
-45.087515
 20
9.749965
 30
0.0
 11
-20.087491
 21
9.749965
 31
0.0
  0
LINE
  5
55
100
AcDbEntity
  8
EBENE_1
 62
   250
100
AcDbLine
 10
-45.087515
 20
21.749921
 30
0.0
 11
-20.087491
 21
21.749921
 31
0.0
  0
LINE
  5
54
100
AcDbEntity
  8
EBENE_1
 62
   250
100
AcDbLine
 10
-45.087515
 20
19.750043
 30
0.0
 11
-20.087491
 21
19.750043
 31
0.0
  0
LINE
  5
53
100
AcDbEntity
  8
EBENE_1
 62
   250
100
AcDbLine
 10
-45.087515
 20
20.750155
 30
0.0
 11
-20.087491
 21
20.750155
 31
0.0
  0
SPLINE
  5
52
100
AcDbEntity
  8
EBENE_1
 62
   250
100
AcDbSpline
210
0.0
220
0.0
230
1.0
 70
     8
 71
     3
 72
     8
 73
     4
 74
     0
 42
0.00000001
 43
0.00000001
 40
0.0
 40
0.0
 40
0.0
 40
0.0
 40
1.0
 40
1.0
 40
1.0
 40
1.0
 10
-43.087292480468747
 20
31.749999999999996
 30
0.0
 10
-44.191790093315966
 20
31.749655490451385
 30
0.0
 10
-45.087170410156247
 20
30.854275173611107
 30
0.0
 10
-45.087514919704859
 20
29.749777560763885
 30
0.0
  0
LINE
  5
51
100
AcDbEntity
  8
EBENE_1
 62
   250
100
AcDbLine
 10
-22.087368
 20
31.75
 30
0.0
 11
-43.087637
 21
31.75
 31
0.0
  0
SPLINE
  5
50
100
AcDbEntity
  8
EBENE_1
 62
   250
100
AcDbSpline
210
0.0
220
0.0
230
1.0
 70
     8
 71
     3
 72
     8
 73
     4
 74
     0
 42
0.00000001
 43
0.00000001
 40
0.0
 40
0.0
 40
0.0
 40
0.0
 40
1.0
 40
1.0
 40
1.0
 40
1.0
 10
-20.087490505642361
 20
29.749777560763885
 30
0.0
 10
-20.087835015190972
 20
30.854275173611107
 30
0.0
 10
-20.983215332031246
 20
31.749655490451385
 30
0.0
 10
-22.087712944878469
 20
31.749999999999996
 30
0.0
  0
LINE
  5
4F
100
AcDbEntity
  8
EBENE_1
 62
   250
100
AcDbLine
 10
-45.087515
 20
22.750033
 30
0.0
 11
-20.087491
 21
22.750033
 31
0.0
  0
LINE
  5
4E
100
AcDbEntity
  8
EBENE_1
 62
   250
100
AcDbLine
 10
-20.087491
 20
-6.749976
 30
0.0
 11
-15.587507
 21
-6.749976
 31
0.0
  0
LINE
  5
4D
100
AcDbEntity
  8
EBENE_1
 62
   250
100
AcDbLine
 10
-20.087491
 20
-28.750011
 30
0.0
 11
-15.587507
 21
-28.750011
 31
0.0
  0
POLYLINE
  5
47
100
AcDbEntity
  8
EBENE_1
 62
   250
100
AcDb2dPolyline
 66
     1
 10
0.0
 20
0.0
 30
0.0
 70
     1
  0
VERTEX
  5
48
100
AcDbEntity
  8
EBENE_1
 62
   250
100
AcDbVertex
100
AcDb2dVertex
 10
-15.587507
 20
-30.250005
 30
0.0
  0
VERTEX
  5
49
100
AcDbEntity
  8
EBENE_1
 62
   250
100
AcDbVertex
100
AcDb2dVertex
 10
-13.587629
 20
-30.250005
 30
0.0
  0
VERTEX
  5
4A
100
AcDbEntity
  8
EBENE_1
 62
   250
100
AcDbVertex
100
AcDb2dVertex
 10
-13.587629
 20
-27.250016
 30
0.0
  0
VERTEX
  5
4B
100
AcDbEntity
  8
EBENE_1
 62
   250
100
AcDbVertex
100
AcDb2dVertex
 10
-15.587507
 20
-27.250016
 30
0.0
  0
SEQEND
  5
4C
100
AcDbEntity
  8
EBENE_1
 62
   250
  0
LINE
  5
46
100
AcDbEntity
  8
EBENE_1
 62
   250
100
AcDbLine
 10
-12.087634
 20
-5.249981
 30
0.0
 11
-12.087634
 21
-30.250005
 31
0.0
  0
POLYLINE
  5
40
100
AcDbEntity
  8
EBENE_1
 62
   250
100
AcDb2dPolyline
 66
     1
 10
0.0
 20
0.0
 30
0.0
 70
     1
  0
VERTEX
  5
41
100
AcDbEntity
  8
EBENE_1
 62
   250
100
AcDbVertex
100
AcDb2dVertex
 10
-15.587507
 20
-8.24997
 30
0.0
  0
VERTEX
  5
42
100
AcDbEntity
  8
EBENE_1
 62
   250
100
AcDbVertex
100
AcDb2dVertex
 10
-13.587629
 20
-8.24997
 30
0.0
  0
VERTEX
  5
43
100
AcDbEntity
  8
EBENE_1
 62
   250
100
AcDbVertex
100
AcDb2dVertex
 10
-13.587629
 20
-5.249981
 30
0.0
  0
VERTEX
  5
44
100
AcDbEntity
  8
EBENE_1
 62
   250
100
AcDbVertex
100
AcDb2dVertex
 10
-15.587507
 20
-5.249981
 30
0.0
  0
SEQEND
  5
45
100
AcDbEntity
  8
EBENE_1
 62
   250
  0
LINE
  5
3F
100
AcDbEntity
  8
EBENE_1
 62
   250
100
AcDbLine
 10
16.912835
 20
-3.749986
 30
0.0
 11
16.912835
 21
-31.75
 31
0.0
  0
LINE
  5
3E
100
AcDbEntity
  8
EBENE_1
 62
   250
100
AcDbLine
 10
35.445382
 20
-19.424137
 30
0.0
 11
35.445382
 21
-31.485417
 31
0.0
  0
LINE
  5
3D
100
AcDbEntity
  8
EBENE_1
 62
   250
100
AcDbLine
 10
37.865217
 20
-31.654226
 30
0.0
 11
34.905535
 21
-31.662495
 31
0.0
  0
LINE
  5
3C
100
AcDbEntity
  8
EBENE_1
 62
   250
100
AcDbLine
 10
35.363044
 20
-3.901915
 30
0.0
 11
35.363044
 21
-5.188658
 31
0.0
  0
ENDBLK
  5
114
100
AcDbEntity
  8
EBENE_1
100
AcDbBlockEnd
  0
ENDSEC
  0
SECTION
  2
ENTITIES
  0
POLYLINE
  5
277
100
AcDbEntity
  8
EBENE_1
 62
   250
100
AcDb2dPolyline
 66
     1
 10
0.0
 20
0.0
 30
0.0
 70
     1
  0
VERTEX
  5
278
100
AcDbEntity
  8
EBENE_1
 62
   250
100
AcDbVertex
100
AcDb2dVertex
 10
195.449224
 20
155.011382
 30
0.0
  0
VERTEX
  5
279
100
AcDbEntity
  8
EBENE_1
 62
   250
100
AcDbVertex
100
AcDb2dVertex
 10
195.449224
 20
145.011304
 30
0.0
  0
VERTEX
  5
27A
100
AcDbEntity
  8
EBENE_1
 62
   250
100
AcDbVertex
100
AcDb2dVertex
 10
182.895296
 20
145.011304
 30
0.0
  0
VERTEX
  5
27B
100
AcDbEntity
  8
EBENE_1
 62
   250
100
AcDbVertex
100
AcDb2dVertex
 10
182.895296
 20
140.011437
 30
0.0
  0
VERTEX
  5
27C
100
AcDbEntity
  8
EBENE_1
 62
   250
100
AcDbVertex
100
AcDb2dVertex
 10
195.449224
 20
140.011437
 30
0.0
  0
VERTEX
  5
27D
100
AcDbEntity
  8
EBENE_1
 62
   250
100
AcDbVertex
100
AcDb2dVertex
 10
195.449224
 20
130.011358
 30
0.0
  0
VERTEX
  5
27E
100
AcDbEntity
  8
EBENE_1
 62
   250
100
AcDbVertex
100
AcDb2dVertex
 10
182.895296
 20
130.011358
 30
0.0
  0
VERTEX
  5
27F
100
AcDbEntity
  8
EBENE_1
 62
   250
100
AcDbVertex
100
AcDb2dVertex
 10
182.895296
 20
125.011491
 30
0.0
  0
VERTEX
  5
280
100
AcDbEntity
  8
EBENE_1
 62
   250
100
AcDbVertex
100
AcDb2dVertex
 10
195.449224
 20
125.011491
 30
0.0
  0
VERTEX
  5
281
100
AcDbEntity
  8
EBENE_1
 62
   250
100
AcDbVertex
100
AcDb2dVertex
 10
195.449224
 20
115.011412
 30
0.0
  0
VERTEX
  5
282
100
AcDbEntity
  8
EBENE_1
 62
   250
100
AcDbVertex
100
AcDb2dVertex
 10
182.895296
 20
115.011412
 30
0.0
  0
VERTEX
  5
283
100
AcDbEntity
  8
EBENE_1
 62
   250
100
AcDbVertex
100
AcDb2dVertex
 10
182.895296
 20
110.011545
 30
0.0
  0
VERTEX
  5
284
100
AcDbEntity
  8
EBENE_1
 62
   250
100
AcDbVertex
100
AcDb2dVertex
 10
195.449224
 20
110.011545
 30
0.0
  0
VERTEX
  5
285
100
AcDbEntity
  8
EBENE_1
 62
   250
100
AcDbVertex
100
AcDb2dVertex
 10
195.449224
 20
100.011466
 30
0.0
  0
VERTEX
  5
286
100
AcDbEntity
  8
EBENE_1
 62
   250
100
AcDbVertex
100
AcDb2dVertex
 10
182.895296
 20
100.011466
 30
0.0
  0
VERTEX
  5
287
100
AcDbEntity
  8
EBENE_1
 62
   250
100
AcDbVertex
100
AcDb2dVertex
 10
182.895296
 20
95.011599
 30
0.0
  0
VERTEX
  5
288
100
AcDbEntity
  8
EBENE_1
 62
   250
100
AcDbVertex
100
AcDb2dVertex
 10
195.449224
 20
95.011599
 30
0.0
  0
VERTEX
  5
289
100
AcDbEntity
  8
EBENE_1
 62
   250
100
AcDbVertex
100
AcDb2dVertex
 10
195.449224
 20
82.511415
 30
0.0
  0
VERTEX
  5
28A
100
AcDbEntity
  8
EBENE_1
 62
   250
100
AcDbVertex
100
AcDb2dVertex
 10
175.465259
 20
82.511415
 30
0.0
  0
VERTEX
  5
28B
100
AcDbEntity
  8
EBENE_1
 62
   250
100
AcDbVertex
100
AcDb2dVertex
 10
175.465259
 20
202.511498
 30
0.0
  0
VERTEX
  5
28C
100
AcDbEntity
  8
EBENE_1
 62
   250
100
AcDbVertex
100
AcDb2dVertex
 10
195.449224
 20
202.511498
 30
0.0
  0
VERTEX
  5
28D
100
AcDbEntity
  8
EBENE_1
 62
   250
100
AcDbVertex
100
AcDb2dVertex
 10
195.449224
 20
190.011485
 30
0.0
  0
VERTEX
  5
28E
100
AcDbEntity
  8
EBENE_1
 62
   250
100
AcDbVertex
100
AcDb2dVertex
 10
182.895296
 20
190.011485
 30
0.0
  0
VERTEX
  5
28F
100
AcDbEntity
  8
EBENE_1
 62
   250
100
AcDbVertex
100
AcDb2dVertex
 10
182.895296
 20
185.011446
 30
0.0
  0
VERTEX
  5
290
100
AcDbEntity
  8
EBENE_1
 62
   250
100
AcDbVertex
100
AcDb2dVertex
 10
195.449224
 20
185.011446
 30
0.0
  0
VERTEX
  5
291
100
AcDbEntity
  8
EBENE_1
 62
   250
100
AcDbVertex
100
AcDb2dVertex
 10
195.449224
 20
175.01154
 30
0.0
  0
VERTEX
  5
292
100
AcDbEntity
  8
EBENE_1
 62
   250
100
AcDbVertex
100
AcDb2dVertex
 10
182.895296
 20
175.01154
 30
0.0
  0
VERTEX
  5
293
100
AcDbEntity
  8
EBENE_1
 62
   250
100
AcDbVertex
100
AcDb2dVertex
 10
182.895296
 20
170.0115
 30
0.0
  0
VERTEX
  5
294
100
AcDbEntity
  8
EBENE_1
 62
   250
100
AcDbVertex
100
AcDb2dVertex
 10
195.449224
 20
170.0115
 30
0.0
  0
VERTEX
  5
295
100
AcDbEntity
  8
EBENE_1
 62
   250
100
AcDbVertex
100
AcDb2dVertex
 10
195.449224
 20
160.011594
 30
0.0
  0
VERTEX
  5
296
100
AcDbEntity
  8
EBENE_1
 62
   250
100
AcDbVertex
100
AcDb2dVertex
 10
182.895296
 20
160.011594
 30
0.0
  0
VERTEX
  5
297
100
AcDbEntity
  8
EBENE_1
 62
   250
100
AcDbVertex
100
AcDb2dVertex
 10
182.895296
 20
155.011382
 30
0.0
  0
VERTEX
  5
298
100
AcDbEntity
  8
EBENE_1
 62
   250
100
AcDbVertex
100
AcDb2dVertex
 10
195.449224
 20
155.011382
 30
0.0
  0
SEQEND
  5
299
100
AcDbEntity
  8
EBENE_1
 62
   250
  0
POLYLINE
  5
271
100
AcDbEntity
  8
EBENE_1
 62
   250
100
AcDb2dPolyline
 66
     1
 10
0.0
 20
0.0
 30
0.0
 70
     1
  0
VERTEX
  5
272
100
AcDbEntity
  8
EBENE_1
 62
   250
100
AcDbVertex
100
AcDb2dVertex
 10
102.949099
 20
82.511415
 30
0.0
  0
VERTEX
  5
273
100
AcDbEntity
  8
EBENE_1
 62
   250
100
AcDbVertex
100
AcDb2dVertex
 10
107.449083
 20
82.511415
 30
0.0
  0
VERTEX
  5
274
100
AcDbEntity
  8
EBENE_1
 62
   250
100
AcDbVertex
100
AcDb2dVertex
 10
107.449083
 20
202.511498
 30
0.0
  0
VERTEX
  5
275
100
AcDbEntity
  8
EBENE_1
 62
   250
100
AcDbVertex
100
AcDb2dVertex
 10
102.949099
 20
202.511498
 30
0.0
  0
SEQEND
  5
276
100
AcDbEntity
  8
EBENE_1
 62
   250
  0
POLYLINE
  5
26B
100
AcDbEntity
  8
EBENE_1
 62
   250
100
AcDb2dPolyline
 66
     1
 10
0.0
 20
0.0
 30
0.0
 70
     1
  0
VERTEX
  5
26C
100
AcDbEntity
  8
EBENE_1
 62
   250
100
AcDbVertex
100
AcDb2dVertex
 10
103.132551
 20
82.511415
 30
0.0
  0
VERTEX
  5
26D
100
AcDbEntity
  8
EBENE_1
 62
   250
100
AcDbVertex
100
AcDb2dVertex
 10
175.449067
 20
82.511415
 30
0.0
  0
VERTEX
  5
26E
100
AcDbEntity
  8
EBENE_1
 62
   250
100
AcDbVertex
100
AcDb2dVertex
 10
175.449067
 20
202.511498
 30
0.0
  0
VERTEX
  5
26F
100
AcDbEntity
  8
EBENE_1
 62
   250
100
AcDbVertex
100
AcDb2dVertex
 10
103.132551
 20
202.511498
 30
0.0
  0
SEQEND
  5
270
100
AcDbEntity
  8
EBENE_1
 62
   250
  0
POLYLINE
  5
264
100
AcDbEntity
  8
EBENE_1
 62
   250
100
AcDb2dPolyline
 66
     1
 10
0.0
 20
0.0
 30
0.0
 70
     1
  0
VERTEX
  5
265
100
AcDbEntity
  8
EBENE_1
 62
   250
100
AcDbVertex
100
AcDb2dVertex
 10
102.949099
 20
131.511353
 30
0.0
  0
VERTEX
  5
266
100
AcDbEntity
  8
EBENE_1
 62
   250
100
AcDbVertex
100
AcDb2dVertex
 10
72.949036
 20
131.511353
 30
0.0
  0
VERTEX
  5
267
100
AcDbEntity
  8
EBENE_1
 62
   250
100
AcDbVertex
100
AcDb2dVertex
 10
72.949036
 20
137.511331
 30
0.0
  0
VERTEX
  5
268
100
AcDbEntity
  8
EBENE_1
 62
   250
100
AcDbVertex
100
AcDb2dVertex
 10
102.949099
 20
137.511331
 30
0.0
  0
VERTEX
  5
269
100
AcDbEntity
  8
EBENE_1
 62
   250
100
AcDbVertex
100
AcDb2dVertex
 10
102.949099
 20
131.511353
 30
0.0
  0
SEQEND
  5
26A
100
AcDbEntity
  8
EBENE_1
 62
   250
  0
POLYLINE
  5
25D
100
AcDbEntity
  8
EBENE_1
 62
   250
100
AcDb2dPolyline
 66
     1
 10
0.0
 20
0.0
 30
0.0
 70
     1
  0
VERTEX
  5
25E
100
AcDbEntity
  8
EBENE_1
 62
   250
100
AcDbVertex
100
AcDb2dVertex
 10
102.949099
 20
148.511176
 30
0.0
  0
VERTEX
  5
25F
100
AcDbEntity
  8
EBENE_1
 62
   250
100
AcDbVertex
100
AcDb2dVertex
 10
72.949036
 20
148.511176
 30
0.0
  0
VERTEX
  5
260
100
AcDbEntity
  8
EBENE_1
 62
   250
100
AcDbVertex
100
AcDb2dVertex
 10
72.949036
 20
156.511377
 30
0.0
  0
VERTEX
  5
261
100
AcDbEntity
  8
EBENE_1
 62
   250
100
AcDbVertex
100
AcDb2dVertex
 10
102.949099
 20
156.511377
 30
0.0
  0
VERTEX
  5
262
100
AcDbEntity
  8
EBENE_1
 62
   250
100
AcDbVertex
100
AcDb2dVertex
 10
102.949099
 20
148.511176
 30
0.0
  0
SEQEND
  5
263
100
AcDbEntity
  8
EBENE_1
 62
   250
  0
POLYLINE
  5
257
100
AcDbEntity
  8
EBENE_1
 62
   250
100
AcDb2dPolyline
 66
     1
 10
0.0
 20
0.0
 30
0.0
 70
     1
  0
VERTEX
  5
258
100
AcDbEntity
  8
EBENE_1
 62
   250
100
AcDbVertex
100
AcDb2dVertex
 10
-27.125304
 20
131.511353
 30
0.0
  0
VERTEX
  5
259
100
AcDbEntity
  8
EBENE_1
 62
   250
100
AcDbVertex
100
AcDb2dVertex
 10
72.960749
 20
131.511353
 30
0.0
  0
VERTEX
  5
25A
100
AcDbEntity
  8
EBENE_1
 62
   250
100
AcDbVertex
100
AcDb2dVertex
 10
72.960749
 20
137.511331
 30
0.0
  0
VERTEX
  5
25B
100
AcDbEntity
  8
EBENE_1
 62
   250
100
AcDbVertex
100
AcDb2dVertex
 10
-27.125304
 20
137.511331
 30
0.0
  0
SEQEND
  5
25C
100
AcDbEntity
  8
EBENE_1
 62
   250
  0
POLYLINE
  5
246
100
AcDbEntity
  8
EBENE_1
 62
   250
100
AcDb2dPolyline
 66
     1
 10
0.0
 20
0.0
 30
0.0
 70
     1
  0
VERTEX
  5
247
100
AcDbEntity
  8
EBENE_1
 62
   250
100
AcDbVertex
100
AcDb2dVertex
 10
53.94899
 20
148.511176
 30
0.0
  0
VERTEX
  5
248
100
AcDbEntity
  8
EBENE_1
 62
   250
100
AcDbVertex
100
AcDb2dVertex
 10
53.94899
 20
147.51141
 30
0.0
  0
VERTEX
  5
249
100
AcDbEntity
  8
EBENE_1
 62
   250
100
AcDbVertex
100
AcDb2dVertex
 10
53.721096
 20
146.265318
 30
0.0
  0
VERTEX
  5
24A
100
AcDbEntity
  8
EBENE_1
 62
   250
100
AcDbVertex
100
AcDb2dVertex
 10
53.140081
 20
144.632343
 30
0.0
  0
VERTEX
  5
24B
100
AcDbEntity
  8
EBENE_1
 62
   250
100
AcDbVertex
100
AcDb2dVertex
 10
52.611087
 20
143.616385
 30
0.0
  0
VERTEX
  5
24C
100
AcDbEntity
  8
EBENE_1
 62
   250
100
AcDbVertex
100
AcDb2dVertex
 10
51.87108
 20
142.531179
 30
0.0
  0
VERTEX
  5
24D
100
AcDbEntity
  8
EBENE_1
 62
   250
100
AcDbVertex
100
AcDb2dVertex
 10
50.994992
 20
141.54416
 30
0.0
  0
VERTEX
  5
24E
100
AcDbEntity
  8
EBENE_1
 62
   250
100
AcDbVertex
100
AcDb2dVertex
 10
50.449117
 20
141.011203
 30
0.0
  0
VERTEX
  5
24F
100
AcDbEntity
  8
EBENE_1
 62
   250
100
AcDbVertex
100
AcDb2dVertex
 10
49.943032
 20
140.608127
 30
0.0
  0
VERTEX
  5
250
100
AcDbEntity
  8
EBENE_1
 62
   250
100
AcDbVertex
100
AcDb2dVertex
 10
49.347031
 20
140.256383
 30
0.0
  0
VERTEX
  5
251
100
AcDbEntity
  8
EBENE_1
 62
   250
100
AcDbVertex
100
AcDb2dVertex
 10
48.463019
 20
140.068281
 30
0.0
  0
VERTEX
  5
252
100
AcDbEntity
  8
EBENE_1
 62
   250
100
AcDbVertex
100
AcDb2dVertex
 10
47.449128
 20
140.011092
 30
0.0
  0
VERTEX
  5
253
100
AcDbEntity
  8
EBENE_1
 62
   250
100
AcDbVertex
100
AcDb2dVertex
 10
47.449128
 20
156.511377
 30
0.0
  0
VERTEX
  5
254
100
AcDbEntity
  8
EBENE_1
 62
   250
100
AcDbVertex
100
AcDb2dVertex
 10
53.94899
 20
156.511377
 30
0.0
  0
VERTEX
  5
255
100
AcDbEntity
  8
EBENE_1
 62
   250
100
AcDbVertex
100
AcDb2dVertex
 10
53.94899
 20
148.511176
 30
0.0
  0
SEQEND
  5
256
100
AcDbEntity
  8
EBENE_1
 62
   250
  0
POLYLINE
  5
240
100
AcDbEntity
  8
EBENE_1
 62
   250
100
AcDb2dPolyline
 66
     1
 10
0.0
 20
0.0
 30
0.0
 70
     1
  0
VERTEX
  5
241
100
AcDbEntity
  8
EBENE_1
 62
   250
100
AcDbVertex
100
AcDb2dVertex
 10
-26.898617
 20
140.011092
 30
0.0
  0
VERTEX
  5
242
100
AcDbEntity
  8
EBENE_1
 62
   250
100
AcDbVertex
100
AcDb2dVertex
 10
47.568156
 20
140.011092
 30
0.0
  0
VERTEX
  5
243
100
AcDbEntity
  8
EBENE_1
 62
   250
100
AcDbVertex
100
AcDb2dVertex
 10
47.568156
 20
156.511377
 30
0.0
  0
VERTEX
  5
244
100
AcDbEntity
  8
EBENE_1
 62
   250
100
AcDbVertex
100
AcDb2dVertex
 10
-26.898617
 20
156.511377
 30
0.0
  0
SEQEND
  5
245
100
AcDbEntity
  8
EBENE_1
 62
   250
  0
POLYLINE
  5
239
100
AcDbEntity
  8
EBENE_1
 62
   250
100
AcDb2dPolyline
 66
     1
 10
0.0
 20
0.0
 30
0.0
 70
     1
  0
VERTEX
  5
23A
100
AcDbEntity
  8
EBENE_1
 62
   250
100
AcDbVertex
100
AcDb2dVertex
 10
72.921303
 20
148.511176
 30
0.0
  0
VERTEX
  5
23B
100
AcDbEntity
  8
EBENE_1
 62
   250
100
AcDbVertex
100
AcDb2dVertex
 10
53.94899
 20
148.511176
 30
0.0
  0
VERTEX
  5
23C
100
AcDbEntity
  8
EBENE_1
 62
   250
100
AcDbVertex
100
AcDb2dVertex
 10
53.94899
 20
156.511377
 30
0.0
  0
VERTEX
  5
23D
100
AcDbEntity
  8
EBENE_1
 62
   250
100
AcDbVertex
100
AcDb2dVertex
 10
72.921303
 20
156.511377
 30
0.0
  0
VERTEX
  5
23E
100
AcDbEntity
  8
EBENE_1
 62
   250
100
AcDbVertex
100
AcDb2dVertex
 10
72.921303
 20
148.511176
 30
0.0
  0
SEQEND
  5
23F
100
AcDbEntity
  8
EBENE_1
 62
   250
  0
POLYLINE
  5
232
100
AcDbEntity
  8
EBENE_1
 62
   250
100
AcDb2dPolyline
 66
     1
 10
0.0
 20
0.0
 30
0.0
 70
     1
  0
VERTEX
  5
233
100
AcDbEntity
  8
EBENE_1
 62
   250
100
AcDbVertex
100
AcDb2dVertex
 10
102.949099
 20
107.511095
 30
0.0
  0
VERTEX
  5
234
100
AcDbEntity
  8
EBENE_1
 62
   250
100
AcDbVertex
100
AcDb2dVertex
 10
72.949036
 20
107.511095
 30
0.0
  0
VERTEX
  5
235
100
AcDbEntity
  8
EBENE_1
 62
   250
100
AcDbVertex
100
AcDb2dVertex
 10
72.949036
 20
101.511117
 30
0.0
  0
VERTEX
  5
236
100
AcDbEntity
  8
EBENE_1
 62
   250
100
AcDbVertex
100
AcDb2dVertex
 10
102.949099
 20
101.511117
 30
0.0
  0
VERTEX
  5
237
100
AcDbEntity
  8
EBENE_1
 62
   250
100
AcDbVertex
100
AcDb2dVertex
 10
102.949099
 20
107.511095
 30
0.0
  0
SEQEND
  5
238
100
AcDbEntity
  8
EBENE_1
 62
   250
  0
POLYLINE
  5
22B
100
AcDbEntity
  8
EBENE_1
 62
   250
100
AcDb2dPolyline
 66
     1
 10
0.0
 20
0.0
 30
0.0
 70
     1
  0
VERTEX
  5
22C
100
AcDbEntity
  8
EBENE_1
 62
   250
100
AcDbVertex
100
AcDb2dVertex
 10
102.949099
 20
90.511271
 30
0.0
  0
VERTEX
  5
22D
100
AcDbEntity
  8
EBENE_1
 62
   250
100
AcDbVertex
100
AcDb2dVertex
 10
72.949036
 20
90.511271
 30
0.0
  0
VERTEX
  5
22E
100
AcDbEntity
  8
EBENE_1
 62
   250
100
AcDbVertex
100
AcDb2dVertex
 10
72.949036
 20
82.51107
 30
0.0
  0
VERTEX
  5
22F
100
AcDbEntity
  8
EBENE_1
 62
   250
100
AcDbVertex
100
AcDb2dVertex
 10
102.949099
 20
82.51107
 30
0.0
  0
VERTEX
  5
230
100
AcDbEntity
  8
EBENE_1
 62
   250
100
AcDbVertex
100
AcDb2dVertex
 10
102.949099
 20
90.511271
 30
0.0
  0
SEQEND
  5
231
100
AcDbEntity
  8
EBENE_1
 62
   250
  0
POLYLINE
  5
225
100
AcDbEntity
  8
EBENE_1
 62
   250
100
AcDb2dPolyline
 66
     1
 10
0.0
 20
0.0
 30
0.0
 70
     1
  0
VERTEX
  5
226
100
AcDbEntity
  8
EBENE_1
 62
   250
100
AcDbVertex
100
AcDb2dVertex
 10
-27.01196
 20
101.511117
 30
0.0
  0
VERTEX
  5
227
100
AcDbEntity
  8
EBENE_1
 62
   250
100
AcDbVertex
100
AcDb2dVertex
 10
73.060484
 20
101.511117
 30
0.0
  0
VERTEX
  5
228
100
AcDbEntity
  8
EBENE_1
 62
   250
100
AcDbVertex
100
AcDb2dVertex
 10
73.060484
 20
107.511095
 30
0.0
  0
VERTEX
  5
229
100
AcDbEntity
  8
EBENE_1
 62
   250
100
AcDbVertex
100
AcDb2dVertex
 10
-27.01196
 20
107.511095
 30
0.0
  0
SEQEND
  5
22A
100
AcDbEntity
  8
EBENE_1
 62
   250
  0
POLYLINE
  5
214
100
AcDbEntity
  8
EBENE_1
 62
   250
100
AcDb2dPolyline
 66
     1
 10
0.0
 20
0.0
 30
0.0
 70
     1
  0
VERTEX
  5
215
100
AcDbEntity
  8
EBENE_1
 62
   250
100
AcDbVertex
100
AcDb2dVertex
 10
53.94899
 20
90.511271
 30
0.0
  0
VERTEX
  5
216
100
AcDbEntity
  8
EBENE_1
 62
   250
100
AcDbVertex
100
AcDb2dVertex
 10
53.94899
 20
91.511382
 30
0.0
  0
VERTEX
  5
217
100
AcDbEntity
  8
EBENE_1
 62
   250
100
AcDbVertex
100
AcDb2dVertex
 10
53.721096
 20
92.757129
 30
0.0
  0
VERTEX
  5
218
100
AcDbEntity
  8
EBENE_1
 62
   250
100
AcDbVertex
100
AcDb2dVertex
 10
53.140081
 20
94.390104
 30
0.0
  0
VERTEX
  5
219
100
AcDbEntity
  8
EBENE_1
 62
   250
100
AcDbVertex
100
AcDb2dVertex
 10
52.611087
 20
95.406407
 30
0.0
  0
VERTEX
  5
21A
100
AcDbEntity
  8
EBENE_1
 62
   250
100
AcDbVertex
100
AcDb2dVertex
 10
51.87108
 20
96.491268
 30
0.0
  0
VERTEX
  5
21B
100
AcDbEntity
  8
EBENE_1
 62
   250
100
AcDbVertex
100
AcDb2dVertex
 10
50.994992
 20
97.478288
 30
0.0
  0
VERTEX
  5
21C
100
AcDbEntity
  8
EBENE_1
 62
   250
100
AcDbVertex
100
AcDb2dVertex
 10
50.449117
 20
98.011244
 30
0.0
  0
VERTEX
  5
21D
100
AcDbEntity
  8
EBENE_1
 62
   250
100
AcDbVertex
100
AcDb2dVertex
 10
49.943032
 20
98.41432
 30
0.0
  0
VERTEX
  5
21E
100
AcDbEntity
  8
EBENE_1
 62
   250
100
AcDbVertex
100
AcDb2dVertex
 10
49.347031
 20
98.766064
 30
0.0
  0
VERTEX
  5
21F
100
AcDbEntity
  8
EBENE_1
 62
   250
100
AcDbVertex
100
AcDb2dVertex
 10
48.463019
 20
98.954167
 30
0.0
  0
VERTEX
  5
220
100
AcDbEntity
  8
EBENE_1
 62
   250
100
AcDbVertex
100
AcDb2dVertex
 10
47.449128
 20
99.011355
 30
0.0
  0
VERTEX
  5
221
100
AcDbEntity
  8
EBENE_1
 62
   250
100
AcDbVertex
100
AcDb2dVertex
 10
47.449128
 20
82.51107
 30
0.0
  0
VERTEX
  5
222
100
AcDbEntity
  8
EBENE_1
 62
   250
100
AcDbVertex
100
AcDb2dVertex
 10
53.94899
 20
82.51107
 30
0.0
  0
VERTEX
  5
223
100
AcDbEntity
  8
EBENE_1
 62
   250
100
AcDbVertex
100
AcDb2dVertex
 10
53.94899
 20
90.511271
 30
0.0
  0
SEQEND
  5
224
100
AcDbEntity
  8
EBENE_1
 62
   250
  0
POLYLINE
  5
20E
100
AcDbEntity
  8
EBENE_1
 62
   250
100
AcDb2dPolyline
 66
     1
 10
0.0
 20
0.0
 30
0.0
 70
     1
  0
VERTEX
  5
20F
100
AcDbEntity
  8
EBENE_1
 62
   250
100
AcDbVertex
100
AcDb2dVertex
 10
-27.011788
 20
82.51107
 30
0.0
  0
VERTEX
  5
210
100
AcDbEntity
  8
EBENE_1
 62
   250
100
AcDbVertex
100
AcDb2dVertex
 10
47.471349
 20
82.51107
 30
0.0
  0
VERTEX
  5
211
100
AcDbEntity
  8
EBENE_1
 62
   250
100
AcDbVertex
100
AcDb2dVertex
 10
47.471349
 20
99.011355
 30
0.0
  0
VERTEX
  5
212
100
AcDbEntity
  8
EBENE_1
 62
   250
100
AcDbVertex
100
AcDb2dVertex
 10
-27.011788
 20
99.011355
 30
0.0
  0
SEQEND
  5
213
100
AcDbEntity
  8
EBENE_1
 62
   250
  0
POLYLINE
  5
207
100
AcDbEntity
  8
EBENE_1
 62
   250
100
AcDb2dPolyline
 66
     1
 10
0.0
 20
0.0
 30
0.0
 70
     1
  0
VERTEX
  5
208
100
AcDbEntity
  8
EBENE_1
 62
   250
100
AcDbVertex
100
AcDb2dVertex
 10
72.921303
 20
90.511271
 30
0.0
  0
VERTEX
  5
209
100
AcDbEntity
  8
EBENE_1
 62
   250
100
AcDbVertex
100
AcDb2dVertex
 10
53.94899
 20
90.511271
 30
0.0
  0
VERTEX
  5
20A
100
AcDbEntity
  8
EBENE_1
 62
   250
100
AcDbVertex
100
AcDb2dVertex
 10
53.94899
 20
82.51107
 30
0.0
  0
VERTEX
  5
20B
100
AcDbEntity
  8
EBENE_1
 62
   250
100
AcDbVertex
100
AcDb2dVertex
 10
72.921303
 20
82.51107
 30
0.0
  0
VERTEX
  5
20C
100
AcDbEntity
  8
EBENE_1
 62
   250
100
AcDbVertex
100
AcDb2dVertex
 10
72.921303
 20
90.511271
 30
0.0
  0
SEQEND
  5
20D
100
AcDbEntity
  8
EBENE_1
 62
   250
  0
POLYLINE
  5
201
100
AcDbEntity
  8
EBENE_1
 62
   250
100
AcDb2dPolyline
 66
     1
 10
0.0
 20
0.0
 30
0.0
 70
     1
  0
VERTEX
  5
202
100
AcDbEntity
  8
EBENE_1
 62
   250
100
AcDbVertex
100
AcDb2dVertex
 10
-68.050971
 20
112.511306
 30
0.0
  0
VERTEX
  5
203
100
AcDbEntity
  8
EBENE_1
 62
   250
100
AcDbVertex
100
AcDb2dVertex
 10
-41.050897
 20
112.511306
 30
0.0
  0
VERTEX
  5
204
100
AcDbEntity
  8
EBENE_1
 62
   250
100
AcDbVertex
100
AcDb2dVertex
 10
-41.050897
 20
126.511141
 30
0.0
  0
VERTEX
  5
205
100
AcDbEntity
  8
EBENE_1
 62
   250
100
AcDbVertex
100
AcDb2dVertex
 10
-68.050971
 20
126.511141
 30
0.0
  0
SEQEND
  5
206
100
AcDbEntity
  8
EBENE_1
 62
   250
  0
POLYLINE
  5
1FB
100
AcDbEntity
  8
EBENE_1
 62
   250
100
AcDb2dPolyline
 66
     1
 10
0.0
 20
0.0
 30
0.0
 70
     1
  0
VERTEX
  5
1FC
100
AcDbEntity
  8
EBENE_1
 62
   250
100
AcDbVertex
100
AcDb2dVertex
 10
-41.050897
 20
79.511081
 30
0.0
  0
VERTEX
  5
1FD
100
AcDbEntity
  8
EBENE_1
 62
   250
100
AcDbVertex
100
AcDb2dVertex
 10
-38.050907
 20
79.511081
 30
0.0
  0
VERTEX
  5
1FE
100
AcDbEntity
  8
EBENE_1
 62
   250
100
AcDbVertex
100
AcDb2dVertex
 10
-38.050907
 20
159.511366
 30
0.0
  0
VERTEX
  5
1FF
100
AcDbEntity
  8
EBENE_1
 62
   250
100
AcDbVertex
100
AcDb2dVertex
 10
-41.050897
 20
159.511366
 30
0.0
  0
SEQEND
  5
200
100
AcDbEntity
  8
EBENE_1
 62
   250
  0
POLYLINE
  5
1F5
100
AcDbEntity
  8
EBENE_1
 62
   250
100
AcDb2dPolyline
 66
     1
 10
0.0
 20
0.0
 30
0.0
 70
     1
  0
VERTEX
  5
1F6
100
AcDbEntity
  8
EBENE_1
 62
   250
100
AcDbVertex
100
AcDb2dVertex
 10
-38.050907
 20
75.69805
 30
0.0
  0
VERTEX
  5
1F7
100
AcDbEntity
  8
EBENE_1
 62
   250
100
AcDbVertex
100
AcDb2dVertex
 10
-27.05089
 20
75.69805
 30
0.0
  0
VERTEX
  5
1F8
100
AcDbEntity
  8
EBENE_1
 62
   250
100
AcDbVertex
100
AcDb2dVertex
 10
-27.05089
 20
163.023985
 30
0.0
  0
VERTEX
  5
1F9
100
AcDbEntity
  8
EBENE_1
 62
   250
100
AcDbVertex
100
AcDb2dVertex
 10
-38.050907
 20
163.023985
 30
0.0
  0
SEQEND
  5
1FA
100
AcDbEntity
  8
EBENE_1
 62
   250
  0
POLYLINE
  5
1EF
100
AcDbEntity
  8
EBENE_1
 62
   250
100
AcDb2dPolyline
 66
     1
 10
0.0
 20
0.0
 30
0.0
 70
     1
  0
VERTEX
  5
1F0
100
AcDbEntity
  8
EBENE_1
 62
   250
100
AcDbVertex
100
AcDb2dVertex
 10
-27.125304
 20
82.220649
 30
0.0
  0
VERTEX
  5
1F1
100
AcDbEntity
  8
EBENE_1
 62
   250
100
AcDbVertex
100
AcDb2dVertex
 10
72.943696
 20
82.220649
 30
0.0
  0
VERTEX
  5
1F2
100
AcDbEntity
  8
EBENE_1
 62
   250
100
AcDbVertex
100
AcDb2dVertex
 10
72.943696
 20
156.220955
 30
0.0
  0
VERTEX
  5
1F3
100
AcDbEntity
  8
EBENE_1
 62
   250
100
AcDbVertex
100
AcDb2dVertex
 10
-27.125304
 20
156.220955
 30
0.0
  0
SEQEND
  5
1F4
100
AcDbEntity
  8
EBENE_1
 62
   250
  0
POLYLINE
  5
1E9
100
AcDbEntity
  8
EBENE_1
 62
   250
100
AcDb2dPolyline
 66
     1
 10
0.0
 20
0.0
 30
0.0
 70
     1
  0
VERTEX
  5
1EA
100
AcDbEntity
  8
EBENE_1
 62
   250
100
AcDbVertex
100
AcDb2dVertex
 10
72.949036
 20
82.51107
 30
0.0
  0
VERTEX
  5
1EB
100
AcDbEntity
  8
EBENE_1
 62
   250
100
AcDbVertex
100
AcDb2dVertex
 10
102.949099
 20
82.51107
 30
0.0
  0
VERTEX
  5
1EC
100
AcDbEntity
  8
EBENE_1
 62
   250
100
AcDbVertex
100
AcDb2dVertex
 10
102.949099
 20
156.511377
 30
0.0
  0
VERTEX
  5
1ED
100
AcDbEntity
  8
EBENE_1
 62
   250
100
AcDbVertex
100
AcDb2dVertex
 10
72.949036
 20
156.511377
 30
0.0
  0
SEQEND
  5
1EE
100
AcDbEntity
  8
EBENE_1
 62
   250
  0
MTEXT
  5
1E8
100
AcDbEntity
  8
EBENE_1
 62
   250
100
AcDbMText
 10
-57.772529
 20
175.523788
 30
0.0
 40
3.500007
 41
0.0
 71
     1
 72
     2
  1
\fMyriad Roman|b0|i0; 3.0 
  7
STD
210
0.0
220
0.0
230
1.0
 11
1.000001
 21
0.0
 31
0.0
 73
     1
 44
1.0
  0
POLYLINE
  5
1E3
100
AcDbEntity
  8
EBENE_1
 62
   250
100
AcDb2dPolyline
 66
     1
 10
0.0
 20
0.0
 30
0.0
 70
     1
  0
VERTEX
  5
1E4
100
AcDbEntity
  8
EBENE_1
 62
   250
100
AcDbVertex
100
AcDb2dVertex
 10
-37.900701
 20
173.511201
 30
0.0
  0
VERTEX
  5
1E5
100
AcDbEntity
  8
EBENE_1
 62
   250
100
AcDbVertex
100
AcDb2dVertex
 10
-33.89974
 20
174.508211
 30
0.0
  0
VERTEX
  5
1E6
100
AcDbEntity
  8
EBENE_1
 62
   250
100
AcDbVertex
100
AcDb2dVertex
 10
-33.89974
 20
172.51419
 30
0.0
  0
SEQEND
  5
1E7
100
AcDbEntity
  8
EBENE_1
 62
   250
  0
HATCH
  5
1E2
100
AcDbEntity
  8
EBENE_1
 62
   250
100
AcDbHatch
 10
0.0
 20
0.0
 30
0.0
210
0.0
220
0.0
230
1.0
  2
SOLID
 70
     1
 71
     0
 91
        1
 92
        3
 72
     0
 73
     1
 93
        3
 10
-37.900701226128469
 20
173.51120062934027
 10
-33.899739583333329
 20
174.50821126302083
 10
-33.899739583333329
 20
172.51418999565971
 97
        0
 75
     0
 76
     1
 98
        1
 10
0.0
 20
0.0
  0
LINE
  5
1E1
100
AcDbEntity
  8
EBENE_1
 62
   250
100
AcDbLine
 10
-29.95321
 20
173.563738
 30
0.0
 11
-37.953239
 21
173.563738
 31
0.0
  0
POLYLINE
  5
1DC
100
AcDbEntity
  8
EBENE_1
 62
   250
100
AcDb2dPolyline
 66
     1
 10
0.0
 20
0.0
 30
0.0
 70
     1
  0
VERTEX
  5
1DD
100
AcDbEntity
  8
EBENE_1
 62
   250
100
AcDbVertex
100
AcDb2dVertex
 10
-41.011967
 20
173.511201
 30
0.0
  0
VERTEX
  5
1DE
100
AcDbEntity
  8
EBENE_1
 62
   250
100
AcDbVertex
100
AcDb2dVertex
 10
-45.012929
 20
172.51419
 30
0.0
  0
VERTEX
  5
1DF
100
AcDbEntity
  8
EBENE_1
 62
   250
100
AcDbVertex
100
AcDb2dVertex
 10
-45.012929
 20
174.508211
 30
0.0
  0
SEQEND
  5
1E0
100
AcDbEntity
  8
EBENE_1
 62
   250
  0
HATCH
  5
1DB
100
AcDbEntity
  8
EBENE_1
 62
   250
100
AcDbHatch
 10
0.0
 20
0.0
 30
0.0
210
0.0
220
0.0
230
1.0
  2
SOLID
 70
     1
 71
     0
 91
        1
 92
        3
 72
     0
 73
     1
 93
        3
 10
-41.011966959635416
 20
173.51120062934027
 10
-45.012928602430549
 20
172.51418999565971
 10
-45.012928602430549
 20
174.50821126302083
 97
        0
 75
     0
 76
     1
 98
        1
 10
0.0
 20
0.0
  0
LINE
  5
1DA
100
AcDbEntity
  8
EBENE_1
 62
   250
100
AcDbLine
 10
-49.746834
 20
173.511201
 30
0.0
 11
-41.746978
 21
173.511201
 31
0.0
  0
LINE
  5
1D9
100
AcDbEntity
  8
EBENE_1
 62
   250
100
AcDbLine
 10
-41.050897
 20
159.511366
 30
0.0
 11
-41.050897
 21
173.511201
 31
0.0
  0
MTEXT
  5
1D8
100
AcDbEntity
  8
EBENE_1
 62
   250
100
AcDbMText
 10
-57.872609
 20
186.761172
 30
0.0
 40
3.500007
 41
0.0
 71
     1
 72
     2
  1
\fMyriad Roman|b0|i0; 30.0 
  7
STD
210
0.0
220
0.0
230
1.0
 11
1.000001
 21
0.0
 31
0.0
 73
     1
 44
1.0
  0
POLYLINE
  5
1D3
100
AcDbEntity
  8
EBENE_1
 62
   250
100
AcDb2dPolyline
 66
     1
 10
0.0
 20
0.0
 30
0.0
 70
     1
  0
VERTEX
  5
1D4
100
AcDbEntity
  8
EBENE_1
 62
   250
100
AcDbVertex
100
AcDb2dVertex
 10
-38.050907
 20
185.011274
 30
0.0
  0
VERTEX
  5
1D5
100
AcDbEntity
  8
EBENE_1
 62
   250
100
AcDbVertex
100
AcDb2dVertex
 10
-42.051869
 20
184.014263
 30
0.0
  0
VERTEX
  5
1D6
100
AcDbEntity
  8
EBENE_1
 62
   250
100
AcDbVertex
100
AcDb2dVertex
 10
-42.051869
 20
186.008285
 30
0.0
  0
SEQEND
  5
1D7
100
AcDbEntity
  8
EBENE_1
 62
   250
  0
HATCH
  5
1D2
100
AcDbEntity
  8
EBENE_1
 62
   250
100
AcDbHatch
 10
0.0
 20
0.0
 30
0.0
210
0.0
220
0.0
230
1.0
  2
SOLID
 70
     1
 71
     0
 91
        1
 92
        3
 72
     0
 73
     1
 93
        3
 10
-38.050907389322916
 20
185.01127387152775
 10
-42.051869032118049
 20
184.01426323784722
 10
-42.051869032118049
 20
186.00828450520831
 97
        0
 75
     0
 76
     1
 98
        1
 10
0.0
 20
0.0
  0
LINE
  5
1D1
100
AcDbEntity
  8
EBENE_1
 62
   250
100
AcDbLine
 10
-42.050836
 20
185.011274
 30
0.0
 11
-38.050907
 21
185.011274
 31
0.0
  0
POLYLINE
  5
1CC
100
AcDbEntity
  8
EBENE_1
 62
   250
100
AcDb2dPolyline
 66
     1
 10
0.0
 20
0.0
 30
0.0
 70
     1
  0
VERTEX
  5
1CD
100
AcDbEntity
  8
EBENE_1
 62
   250
100
AcDbVertex
100
AcDb2dVertex
 10
-68.050971
 20
185.011274
 30
0.0
  0
VERTEX
  5
1CE
100
AcDbEntity
  8
EBENE_1
 62
   250
100
AcDbVertex
100
AcDb2dVertex
 10
-64.049837
 20
186.008285
 30
0.0
  0
VERTEX
  5
1CF
100
AcDbEntity
  8
EBENE_1
 62
   250
100
AcDbVertex
100
AcDb2dVertex
 10
-64.049837
 20
184.014263
 30
0.0
  0
SEQEND
  5
1D0
100
AcDbEntity
  8
EBENE_1
 62
   250
  0
HATCH
  5
1CB
100
AcDbEntity
  8
EBENE_1
 62
   250
100
AcDbHatch
 10
0.0
 20
0.0
 30
0.0
210
0.0
220
0.0
230
1.0
  2
SOLID
 70
     1
 71
     0
 91
        1
 92
        3
 72
     0
 73
     1
 93
        3
 10
-68.050971137152771
 20
185.01127387152775
 10
-64.049837239583326
 20
186.00828450520831
 10
-64.049837239583326
 20
184.01426323784722
 97
        0
 75
     0
 76
     1
 98
        1
 10
0.0
 20
0.0
  0
LINE
  5
1CA
100
AcDbEntity
  8
EBENE_1
 62
   250
100
AcDbLine
 10
-63.050932
 20
185.011274
 30
0.0
 11
-68.050971
 21
185.011274
 31
0.0
  0
MTEXT
  5
1C9
100
AcDbEntity
  8
EBENE_1
 62
   250
100
AcDbMText
 10
-59.578448
 20
72.647208
 30
0.0
 40
3.500007
 41
0.0
 71
     1
 72
     2
  1
\fMyriad Roman|b0|i0; 11.0 
  7
STD
210
0.0
220
0.0
230
1.0
 11
1.000001
 21
0.0
 31
0.0
 73
     1
 44
1.0
  0
POLYLINE
  5
1C4
100
AcDbEntity
  8
EBENE_1
 62
   250
100
AcDb2dPolyline
 66
     1
 10
0.0
 20
0.0
 30
0.0
 70
     1
  0
VERTEX
  5
1C5
100
AcDbEntity
  8
EBENE_1
 62
   250
100
AcDbVertex
100
AcDb2dVertex
 10
-27.081896
 20
70.356429
 30
0.0
  0
VERTEX
  5
1C6
100
AcDbEntity
  8
EBENE_1
 62
   250
100
AcDbVertex
100
AcDb2dVertex
 10
-23.080762
 20
71.35344
 30
0.0
  0
VERTEX
  5
1C7
100
AcDbEntity
  8
EBENE_1
 62
   250
100
AcDbVertex
100
AcDb2dVertex
 10
-23.080762
 20
69.359418
 30
0.0
  0
SEQEND
  5
1C8
100
AcDbEntity
  8
EBENE_1
 62
   250
  0
HATCH
  5
1C3
100
AcDbEntity
  8
EBENE_1
 62
   250
100
AcDbHatch
 10
0.0
 20
0.0
 30
0.0
210
0.0
220
0.0
230
1.0
  2
SOLID
 70
     1
 71
     0
 91
        1
 92
        3
 72
     0
 73
     1
 93
        3
 10
-27.081895616319443
 20
70.356429036458323
 10
-23.080761718749997
 20
71.353439670138883
 10
-23.080761718749997
 20
69.359418402777777
 97
        0
 75
     0
 76
     1
 98
        1
 10
0.0
 20
0.0
  0
LINE
  5
1C2
100
AcDbEntity
  8
EBENE_1
 62
   250
100
AcDbLine
 10
-17.552589
 20
70.352639
 30
0.0
 11
-25.845968
 21
70.352639
 31
0.0
  0
POLYLINE
  5
1BD
100
AcDbEntity
  8
EBENE_1
 62
   250
100
AcDb2dPolyline
 66
     1
 10
0.0
 20
0.0
 30
0.0
 70
     1
  0
VERTEX
  5
1BE
100
AcDbEntity
  8
EBENE_1
 62
   250
100
AcDbVertex
100
AcDb2dVertex
 10
-38.060209
 20
70.574159
 30
0.0
  0
VERTEX
  5
1BF
100
AcDbEntity
  8
EBENE_1
 62
   250
100
AcDbVertex
100
AcDb2dVertex
 10
-42.061171
 20
69.577148
 30
0.0
  0
VERTEX
  5
1C0
100
AcDbEntity
  8
EBENE_1
 62
   250
100
AcDbVertex
100
AcDb2dVertex
 10
-42.061171
 20
71.57117
 30
0.0
  0
SEQEND
  5
1C1
100
AcDbEntity
  8
EBENE_1
 62
   250
  0
HATCH
  5
1BC
100
AcDbEntity
  8
EBENE_1
 62
   250
100
AcDbHatch
 10
0.0
 20
0.0
 30
0.0
210
0.0
220
0.0
230
1.0
  2
SOLID
 70
     1
 71
     0
 91
        1
 92
        3
 72
     0
 73
     1
 93
        3
 10
-38.06020914713541
 20
70.574159071180546
 10
-42.06117078993055
 20
69.5771484375
 10
-42.06117078993055
 20
71.571169704861106
 97
        0
 75
     0
 76
     1
 98
        1
 10
0.0
 20
0.0
  0
LINE
  5
1BB
100
AcDbEntity
  8
EBENE_1
 62
   250
100
AcDbLine
 10
-49.294666
 20
70.520071
 30
0.0
 11
-38.294648
 21
70.520071
 31
0.0
  0
LINE
  5
1BA
100
AcDbEntity
  8
EBENE_1
 62
   250
100
AcDbLine
 10
-27.055024
 20
70.329902
 30
0.0
 11
-27.055024
 21
77.469862
 31
0.0
  0
POLYLINE
  5
1B5
100
AcDbEntity
  8
EBENE_1
 62
   250
100
AcDb2dPolyline
 66
     1
 10
0.0
 20
0.0
 30
0.0
 70
     1
  0
VERTEX
  5
1B6
100
AcDbEntity
  8
EBENE_1
 62
   250
100
AcDbVertex
100
AcDb2dVertex
 10
195.449224
 20
257.261644
 30
0.0
  0
VERTEX
  5
1B7
100
AcDbEntity
  8
EBENE_1
 62
   250
100
AcDbVertex
100
AcDb2dVertex
 10
191.448435
 20
256.264634
 30
0.0
  0
VERTEX
  5
1B8
100
AcDbEntity
  8
EBENE_1
 62
   250
100
AcDbVertex
100
AcDb2dVertex
 10
191.448435
 20
258.258655
 30
0.0
  0
SEQEND
  5
1B9
100
AcDbEntity
  8
EBENE_1
 62
   250
  0
HATCH
  5
1B4
100
AcDbEntity
  8
EBENE_1
 62
   250
100
AcDbHatch
 10
0.0
 20
0.0
 30
0.0
210
0.0
220
0.0
230
1.0
  2
SOLID
 70
     1
 71
     0
 91
        1
 92
        3
 72
     0
 73
     1
 93
        3
 10
195.44922417534721
 20
257.26164415147565
 10
191.44843478732636
 20
256.26463351779512
 10
191.44843478732636
 20
258.25865478515624
 97
        0
 75
     0
 76
     1
 98
        1
 10
0.0
 20
0.0
  0
LINE
  5
1B3
100
AcDbEntity
  8
EBENE_1
 62
   250
100
AcDbLine
 10
97.486556
 20
257.261644
 30
0.0
 11
195.449224
 21
257.261644
 31
0.0
  0
POLYLINE
  5
1AE
100
AcDbEntity
  8
EBENE_1
 62
   250
100
AcDb2dPolyline
 66
     1
 10
0.0
 20
0.0
 30
0.0
 70
     1
  0
VERTEX
  5
1AF
100
AcDbEntity
  8
EBENE_1
 62
   250
100
AcDbVertex
100
AcDb2dVertex
 10
-38.013011
 20
257.311426
 30
0.0
  0
VERTEX
  5
1B0
100
AcDbEntity
  8
EBENE_1
 62
   250
100
AcDbVertex
100
AcDb2dVertex
 10
-34.011877
 20
258.308436
 30
0.0
  0
VERTEX
  5
1B1
100
AcDbEntity
  8
EBENE_1
 62
   250
100
AcDbVertex
100
AcDb2dVertex
 10
-34.011877
 20
256.314415
 30
0.0
  0
SEQEND
  5
1B2
100
AcDbEntity
  8
EBENE_1
 62
   250
  0
HATCH
  5
1AD
100
AcDbEntity
  8
EBENE_1
 62
   250
100
AcDbHatch
 10
0.0
 20
0.0
 30
0.0
210
0.0
220
0.0
230
1.0
  2
SOLID
 70
     1
 71
     0
 91
        1
 92
        3
 72
     0
 73
     1
 93
        3
 10
-38.013011338975694
 20
257.31142578124997
 10
-34.011877441406249
 20
258.30843641493055
 10
-34.011877441406249
 20
256.31441514756943
 97
        0
 75
     0
 76
     1
 98
        1
 10
0.0
 20
0.0
  0
LINE
  5
1AC
100
AcDbEntity
  8
EBENE_1
 62
   250
100
AcDbLine
 10
80.97318
 20
257.261644
 30
0.0
 11
-37.896567
 21
257.261644
 31
0.0
  0
LINE
  5
1AB
100
AcDbEntity
  8
EBENE_1
 62
   250
100
AcDbLine
 10
195.449224
 20
232.511734
 30
0.0
 11
195.449224
 21
257.261644
 31
0.0
  0
LINE
  5
1AA
100
AcDbEntity
  8
EBENE_1
 62
   250
100
AcDbLine
 10
-68.050971
 20
126.511141
 30
0.0
 11
-68.050971
 21
185.011274
 31
0.0
  0
POLYLINE
  5
1A5
100
AcDbEntity
  8
EBENE_1
 62
   250
100
AcDb2dPolyline
 66
     1
 10
0.0
 20
0.0
 30
0.0
 70
     1
  0
VERTEX
  5
1A6
100
AcDbEntity
  8
EBENE_1
 62
   250
100
AcDbVertex
100
AcDb2dVertex
 10
102.949099
 20
243.761693
 30
0.0
  0
VERTEX
  5
1A7
100
AcDbEntity
  8
EBENE_1
 62
   250
100
AcDbVertex
100
AcDb2dVertex
 10
98.948138
 20
242.764682
 30
0.0
  0
VERTEX
  5
1A8
100
AcDbEntity
  8
EBENE_1
 62
   250
100
AcDbVertex
100
AcDb2dVertex
 10
98.948138
 20
244.758704
 30
0.0
  0
SEQEND
  5
1A9
100
AcDbEntity
  8
EBENE_1
 62
   250
  0
HATCH
  5
1A4
100
AcDbEntity
  8
EBENE_1
 62
   250
100
AcDbHatch
 10
0.0
 20
0.0
 30
0.0
210
0.0
220
0.0
230
1.0
  2
SOLID
 70
     1
 71
     0
 91
        1
 92
        3
 72
     0
 73
     1
 93
        3
 10
102.94909939236111
 20
243.76169297960067
 10
98.948137749565959
 20
242.76468234592011
 10
98.948137749565959
 20
244.75870361328123
 97
        0
 75
     0
 76
     1
 98
        1
 10
0.0
 20
0.0
  0
LINE
  5
1A3
100
AcDbEntity
  8
EBENE_1
 62
   250
100
AcDbLine
 10
50.125795
 20
243.761693
 30
0.0
 11
102.949099
 21
243.761693
 31
0.0
  0
POLYLINE
  5
19E
100
AcDbEntity
  8
EBENE_1
 62
   250
100
AcDb2dPolyline
 66
     1
 10
0.0
 20
0.0
 30
0.0
 70
     1
  0
VERTEX
  5
19F
100
AcDbEntity
  8
EBENE_1
 62
   250
100
AcDbVertex
100
AcDb2dVertex
 10
-38.071578
 20
243.88675
 30
0.0
  0
VERTEX
  5
1A0
100
AcDbEntity
  8
EBENE_1
 62
   250
100
AcDbVertex
100
AcDb2dVertex
 10
-34.070616
 20
244.883761
 30
0.0
  0
VERTEX
  5
1A1
100
AcDbEntity
  8
EBENE_1
 62
   250
100
AcDbVertex
100
AcDb2dVertex
 10
-34.070616
 20
242.889739
 30
0.0
  0
SEQEND
  5
1A2
100
AcDbEntity
  8
EBENE_1
 62
   250
  0
HATCH
  5
19D
100
AcDbEntity
  8
EBENE_1
 62
   250
100
AcDbHatch
 10
0.0
 20
0.0
 30
0.0
210
0.0
220
0.0
230
1.0
  2
SOLID
 70
     1
 71
     0
 91
        1
 92
        3
 72
     0
 73
     1
 93
        3
 10
-38.07157796223958
 20
243.88674994574652
 10
-34.07061631944444
 20
244.88376057942705
 10
-34.07061631944444
 20
242.88973931206596
 97
        0
 75
     0
 76
     1
 98
        1
 10
0.0
 20
0.0
  0
LINE
  5
19C
100
AcDbEntity
  8
EBENE_1
 62
   250
100
AcDbLine
 10
34.925
 20
243.854711
 30
0.0
 11
-34.354664
 21
243.854711
 31
0.0
  0
LINE
  5
19B
100
AcDbEntity
  8
EBENE_1
 62
   250
100
AcDbLine
 10
-38.046946
 20
159.511366
 30
0.0
 11
-38.046946
 21
257.29644
 31
0.0
  0
MTEXT
  5
19A
100
AcDbEntity
  8
EBENE_1
 62
   250
100
AcDbMText
 10
141.768091
 20
246.084683
 30
0.0
 40
3.500007
 41
0.0
 71
     1
 72
     2
  1
\fMyriad Roman|b0|i0; 92.5 
  7
STD
210
0.0
220
0.0
230
1.0
 11
1.000001
 21
0.0
 31
0.0
 73
     1
 44
1.0
  0
POLYLINE
  5
195
100
AcDbEntity
  8
EBENE_1
 62
   250
100
AcDb2dPolyline
 66
     1
 10
0.0
 20
0.0
 30
0.0
 70
     1
  0
VERTEX
  5
196
100
AcDbEntity
  8
EBENE_1
 62
   250
100
AcDbVertex
100
AcDb2dVertex
 10
102.949099
 20
243.761693
 30
0.0
  0
VERTEX
  5
197
100
AcDbEntity
  8
EBENE_1
 62
   250
100
AcDbVertex
100
AcDb2dVertex
 10
106.950233
 20
244.758704
 30
0.0
  0
VERTEX
  5
198
100
AcDbEntity
  8
EBENE_1
 62
   250
100
AcDbVertex
100
AcDb2dVertex
 10
106.950233
 20
242.764682
 30
0.0
  0
SEQEND
  5
199
100
AcDbEntity
  8
EBENE_1
 62
   250
  0
HATCH
  5
194
100
AcDbEntity
  8
EBENE_1
 62
   250
100
AcDbHatch
 10
0.0
 20
0.0
 30
0.0
210
0.0
220
0.0
230
1.0
  2
SOLID
 70
     1
 71
     0
 91
        1
 92
        3
 72
     0
 73
     1
 93
        3
 10
102.94909939236111
 20
243.76169297960067
 10
106.95023328993055
 20
244.75870361328123
 10
106.95023328993055
 20
242.76468234592011
 97
        0
 75
     0
 76
     1
 98
        1
 10
0.0
 20
0.0
  0
LINE
  5
193
100
AcDbEntity
  8
EBENE_1
 62
   250
100
AcDbLine
 10
139.761667
 20
243.761693
 30
0.0
 11
102.949099
 21
243.761693
 31
0.0
  0
POLYLINE
  5
18E
100
AcDbEntity
  8
EBENE_1
 62
   250
100
AcDb2dPolyline
 66
     1
 10
0.0
 20
0.0
 30
0.0
 70
     1
  0
VERTEX
  5
18F
100
AcDbEntity
  8
EBENE_1
 62
   250
100
AcDbVertex
100
AcDb2dVertex
 10
195.449224
 20
243.761693
 30
0.0
  0
VERTEX
  5
190
100
AcDbEntity
  8
EBENE_1
 62
   250
100
AcDbVertex
100
AcDb2dVertex
 10
191.448435
 20
242.764682
 30
0.0
  0
VERTEX
  5
191
100
AcDbEntity
  8
EBENE_1
 62
   250
100
AcDbVertex
100
AcDb2dVertex
 10
191.448435
 20
244.758704
 30
0.0
  0
SEQEND
  5
192
100
AcDbEntity
  8
EBENE_1
 62
   250
  0
HATCH
  5
18D
100
AcDbEntity
  8
EBENE_1
 62
   250
100
AcDbHatch
 10
0.0
 20
0.0
 30
0.0
210
0.0
220
0.0
230
1.0
  2
SOLID
 70
     1
 71
     0
 91
        1
 92
        3
 72
     0
 73
     1
 93
        3
 10
195.44922417534721
 20
243.76169297960067
 10
191.44843478732636
 20
242.76468234592011
 10
191.44843478732636
 20
244.75870361328123
 97
        0
 75
     0
 76
     1
 98
        1
 10
0.0
 20
0.0
  0
LINE
  5
18C
100
AcDbEntity
  8
EBENE_1
 62
   250
100
AcDbLine
 10
153.041132
 20
243.761693
 30
0.0
 11
195.449224
 21
243.761693
 31
0.0
  0
LINE
  5
18B
100
AcDbEntity
  8
EBENE_1
 62
   250
100
AcDbLine
 10
195.449224
 20
200.511447
 30
0.0
 11
195.449224
 21
243.761693
 31
0.0
  0
MTEXT
  5
18A
100
AcDbEntity
  8
EBENE_1
 62
   250
100
AcDbMText
 10
203.674734
 20
145.011438
 30
0.0
 40
3.500007
 41
0.0
 71
     1
 72
     2
  1
\fMyriad Roman|b0|i0; 120.0 
  7
STD
210
0.0
220
0.0
230
1.0
 11
1.000001
 21
0.0
 31
0.0
 73
     1
 44
1.0
  0
POLYLINE
  5
185
100
AcDbEntity
  8
EBENE_1
 62
   250
100
AcDb2dPolyline
 66
     1
 10
0.0
 20
0.0
 30
0.0
 70
     1
  0
VERTEX
  5
186
100
AcDbEntity
  8
EBENE_1
 62
   250
100
AcDbVertex
100
AcDb2dVertex
 10
210.66311
 20
202.511498
 30
0.0
  0
VERTEX
  5
187
100
AcDbEntity
  8
EBENE_1
 62
   250
100
AcDbVertex
100
AcDb2dVertex
 10
211.660121
 20
198.510536
 30
0.0
  0
VERTEX
  5
188
100
AcDbEntity
  8
EBENE_1
 62
   250
100
AcDbVertex
100
AcDb2dVertex
 10
209.6661
 20
198.510536
 30
0.0
  0
SEQEND
  5
189
100
AcDbEntity
  8
EBENE_1
 62
   250
  0
HATCH
  5
184
100
AcDbEntity
  8
EBENE_1
 62
   250
100
AcDbHatch
 10
0.0
 20
0.0
 30
0.0
210
0.0
220
0.0
230
1.0
  2
SOLID
 70
     1
 71
     0
 91
        1
 92
        3
 72
     0
 73
     1
 93
        3
 10
210.66311035156249
 20
202.51149766710068
 10
211.66012098524303
 20
198.51053602430554
 10
209.66609971788193
 20
198.51053602430554
 97
        0
 75
     0
 76
     1
 98
        1
 10
0.0
 20
0.0
  0
LINE
  5
183
100
AcDbEntity
  8
EBENE_1
 62
   250
100
AcDbLine
 10
210.66311
 20
146.761412
 30
0.0
 11
210.66311
 21
202.511498
 31
0.0
  0
POLYLINE
  5
17E
100
AcDbEntity
  8
EBENE_1
 62
   250
100
AcDb2dPolyline
 66
     1
 10
0.0
 20
0.0
 30
0.0
 70
     1
  0
VERTEX
  5
17F
100
AcDbEntity
  8
EBENE_1
 62
   250
100
AcDbVertex
100
AcDb2dVertex
 10
210.66311
 20
82.511415
 30
0.0
  0
VERTEX
  5
180
100
AcDbEntity
  8
EBENE_1
 62
   250
100
AcDbVertex
100
AcDb2dVertex
 10
209.6661
 20
86.512549
 30
0.0
  0
VERTEX
  5
181
100
AcDbEntity
  8
EBENE_1
 62
   250
100
AcDbVertex
100
AcDb2dVertex
 10
211.660121
 20
86.512549
 30
0.0
  0
SEQEND
  5
182
100
AcDbEntity
  8
EBENE_1
 62
   250
  0
HATCH
  5
17D
100
AcDbEntity
  8
EBENE_1
 62
   250
100
AcDbHatch
 10
0.0
 20
0.0
 30
0.0
210
0.0
220
0.0
230
1.0
  2
SOLID
 70
     1
 71
     0
 91
        1
 92
        3
 72
     0
 73
     1
 93
        3
 10
210.66311035156249
 20
82.511414930555546
 10
209.66609971788193
 20
86.512548828124991
 10
211.66012098524303
 20
86.512548828124991
 97
        0
 75
     0
 76
     1
 98
        1
 10
0.0
 20
0.0
  0
LINE
  5
17C
100
AcDbEntity
  8
EBENE_1
 62
   250
100
AcDbLine
 10
210.66311
 20
139.761323
 30
0.0
 11
210.66311
 21
82.511415
 31
0.0
  0
LINE
  5
17B
100
AcDbEntity
  8
EBENE_1
 62
   250
100
AcDbLine
 10
191.449124
 20
202.511498
 30
0.0
 11
210.66311
 21
202.511498
 31
0.0
  0
LINE
  5
17A
100
AcDbEntity
  8
EBENE_1
 62
   250
100
AcDbLine
 10
191.449124
 20
82.511415
 30
0.0
 11
210.66311
 21
82.511415
 31
0.0
  0
LINE
  5
179
100
AcDbEntity
  8
EBENE_1
 62
   250
100
AcDbLine
 10
-47.128562
 20
185.118416
 30
0.0
 11
-38.010428
 21
185.118416
 31
0.0
  0
LINE
  5
178
100
AcDbEntity
  8
EBENE_1
 62
   250
100
AcDbLine
 10
-38.006982
 20
70.579671
 30
0.0
 11
-38.006982
 21
77.719976
 31
0.0
  0
MTEXT
  5
177
100
AcDbEntity
  8
EBENE_1
 62
   250
100
AcDbMText
 10
-106.859972
 20
122.39586
 30
0.0
 40
3.674769
 41
0.0
 71
     1
 72
     2
  1
\fMyriad Roman|b0|i0;86.0 
  7
STD
210
0.0
220
0.0
230
1.0
 11
1.000001
 21
0.0
 31
0.0
 73
     1
 44
1.0
  0
LINE
  5
176
100
AcDbEntity
  8
EBENE_1
 62
   250
100
AcDbLine
 10
-102.143292
 20
116.481779
 30
0.0
 11
-102.143292
 21
78.718709
 31
0.0
  0
POLYLINE
  5
171
100
AcDbEntity
  8
EBENE_1
 62
   250
100
AcDb2dPolyline
 66
     1
 10
0.0
 20
0.0
 30
0.0
  0
VERTEX
  5
172
100
AcDbEntity
  8
EBENE_1
 62
   250
100
AcDbVertex
100
AcDb2dVertex
 10
-102.217361
 20
162.982472
 30
0.0
  0
VERTEX
  5
173
100
AcDbEntity
  8
EBENE_1
 62
   250
100
AcDbVertex
100
AcDb2dVertex
 10
-101.22035
 20
158.981338
 30
0.0
  0
VERTEX
  5
174
100
AcDbEntity
  8
EBENE_1
 62
   250
100
AcDbVertex
100
AcDb2dVertex
 10
-103.214372
 20
158.981338
 30
0.0
  0
SEQEND
  5
175
100
AcDbEntity
  8
EBENE_1
 62
   250
  0
HATCH
  5
170
100
AcDbEntity
  8
EBENE_1
 62
   250
100
AcDbHatch
 10
0.0
 20
0.0
 30
0.0
210
0.0
220
0.0
230
1.0
  2
SOLID
 70
     1
 71
     0
 91
        1
 92
        3
 72
     0
 73
     0
 93
        3
 10
-102.2173611111111
 20
162.9824720594618
 10
-101.22035047743054
 20
158.98133816189235
 10
-103.21437174479166
 20
158.98133816189235
 97
        0
 75
     0
 76
     1
 98
        1
 10
0.0
 20
0.0
  0
LINE
  5
16F
100
AcDbEntity
  8
EBENE_1
 62
   250
100
AcDbLine
 10
-102.234759
 20
124.087172
 30
0.0
 11
-102.234759
 21
160.887854
 31
0.0
  0
LINE
  5
16E
100
AcDbEntity
  8
EBENE_1
 62
   250
100
AcDbLine
 10
-38.031615
 20
75.702184
 30
0.0
 11
-102.182221
 21
75.702184
 31
0.0
  0
LINE
  5
16D
100
AcDbEntity
  8
EBENE_1
 62
   250
100
AcDbLine
 10
-41.05572
 20
159.485011
 30
0.0
 11
-89.865144
 21
159.485011
 31
0.0
  0
POLYLINE
  5
168
100
AcDbEntity
  8
EBENE_1
 62
   250
100
AcDb2dPolyline
 66
     1
 10
0.0
 20
0.0
 30
0.0
 70
     1
  0
VERTEX
  5
169
100
AcDbEntity
  8
EBENE_1
 62
   250
100
AcDbVertex
100
AcDb2dVertex
 10
-102.190662
 20
75.738013
 30
0.0
  0
VERTEX
  5
16A
100
AcDbEntity
  8
EBENE_1
 62
   250
100
AcDbVertex
100
AcDb2dVertex
 10
-103.187672
 20
79.739147
 30
0.0
  0
VERTEX
  5
16B
100
AcDbEntity
  8
EBENE_1
 62
   250
100
AcDbVertex
100
AcDb2dVertex
 10
-101.193651
 20
79.739147
 30
0.0
  0
SEQEND
  5
16C
100
AcDbEntity
  8
EBENE_1
 62
   250
  0
HATCH
  5
167
100
AcDbEntity
  8
EBENE_1
 62
   250
100
AcDbHatch
 10
0.0
 20
0.0
 30
0.0
210
0.0
220
0.0
230
1.0
  2
SOLID
 70
     1
 71
     0
 91
        1
 92
        3
 72
     0
 73
     1
 93
        3
 10
-102.19066162109374
 20
75.738012695312491
 10
-103.1876722547743
 20
79.739146592881937
 10
-101.19365098741318
 20
79.739146592881937
 97
        0
 75
     0
 76
     1
 98
        1
 10
0.0
 20
0.0
  0
LINE
  5
166
100
AcDbEntity
  8
EBENE_1
 62
   250
100
AcDbLine
 10
-76.891775
 20
134.482058
 30
0.0
 11
-76.891775
 21
126.481858
 31
0.0
  0
LINE
  5
165
100
AcDbEntity
  8
EBENE_1
 62
   250
100
AcDbLine
 10
-76.702123
 20
104.524886
 30
0.0
 11
-76.702123
 21
112.524398
 31
0.0
  0
LINE
  5
164
100
AcDbEntity
  8
EBENE_1
 62
   250
100
AcDbLine
 10
-68.03943
 20
126.481858
 30
0.0
 11
-76.891947
 21
126.481858
 31
0.0
  0
LINE
  5
163
100
AcDbEntity
  8
EBENE_1
 62
   250
100
AcDbLine
 10
-67.92557
 20
112.562294
 30
0.0
 11
-76.713664
 21
112.562294
 31
0.0
  0
LINE
  5
162
100
AcDbEntity
  8
EBENE_1
 62
   250
100
AcDbLine
 10
-38.015251
 20
163.027086
 30
0.0
 11
-102.22339
 21
163.027086
 31
0.0
  0
LINE
  5
161
100
AcDbEntity
  8
EBENE_1
 62
   250
100
AcDbLine
 10
-41.014723
 20
79.505569
 30
0.0
 11
-89.91148
 21
79.505569
 31
0.0
  0
LINE
  5
160
100
AcDbEntity
  8
EBENE_1
 62
   250
100
AcDbLine
 10
-89.909241
 20
124.010002
 30
0.0
 11
-89.909241
 21
159.302766
 31
0.0
  0
LINE
  5
15F
100
AcDbEntity
  8
EBENE_1
 62
   250
100
AcDbLine
 10
-89.909413
 20
79.843188
 30
0.0
 11
-89.909413
 21
116.320204
 31
0.0
  0
POLYLINE
  5
15A
100
AcDbEntity
  8
EBENE_1
 62
   250
100
AcDb2dPolyline
 66
     1
 10
0.0
 20
0.0
 30
0.0
 70
     1
  0
VERTEX
  5
15B
100
AcDbEntity
  8
EBENE_1
 62
   250
100
AcDbVertex
100
AcDb2dVertex
 10
-89.91148
 20
79.518316
 30
0.0
  0
VERTEX
  5
15C
100
AcDbEntity
  8
EBENE_1
 62
   250
100
AcDbVertex
100
AcDb2dVertex
 10
-90.908491
 20
83.51945
 30
0.0
  0
VERTEX
  5
15D
100
AcDbEntity
  8
EBENE_1
 62
   250
100
AcDbVertex
100
AcDb2dVertex
 10
-88.914469
 20
83.51945
 30
0.0
  0
SEQEND
  5
15E
100
AcDbEntity
  8
EBENE_1
 62
   250
  0
HATCH
  5
159
100
AcDbEntity
  8
EBENE_1
 62
   250
100
AcDbHatch
 10
0.0
 20
0.0
 30
0.0
210
0.0
220
0.0
230
1.0
  2
SOLID
 70
     1
 71
     0
 91
        1
 92
        3
 72
     0
 73
     1
 93
        3
 10
-89.911480034722217
 20
79.518315972222211
 10
-90.908490668402763
 20
83.519449869791657
 10
-88.914469401041657
 20
83.519449869791657
 97
        0
 75
     0
 76
     1
 98
        1
 10
0.0
 20
0.0
  0
POLYLINE
  5
154
100
AcDbEntity
  8
EBENE_1
 62
   250
100
AcDb2dPolyline
 66
     1
 10
0.0
 20
0.0
 30
0.0
 70
     1
  0
VERTEX
  5
155
100
AcDbEntity
  8
EBENE_1
 62
   250
100
AcDbVertex
100
AcDb2dVertex
 10
-76.870071
 20
126.499083
 30
0.0
  0
VERTEX
  5
156
100
AcDbEntity
  8
EBENE_1
 62
   250
100
AcDbVertex
100
AcDb2dVertex
 10
-77.867082
 20
130.500217
 30
0.0
  0
VERTEX
  5
157
100
AcDbEntity
  8
EBENE_1
 62
   250
100
AcDbVertex
100
AcDb2dVertex
 10
-75.87306
 20
130.500217
 30
0.0
  0
SEQEND
  5
158
100
AcDbEntity
  8
EBENE_1
 62
   250
  0
HATCH
  5
153
100
AcDbEntity
  8
EBENE_1
 62
   250
100
AcDbHatch
 10
0.0
 20
0.0
 30
0.0
210
0.0
220
0.0
230
1.0
  2
SOLID
 70
     1
 71
     0
 91
        1
 92
        3
 72
     0
 73
     1
 93
        3
 10
-76.870071072048603
 20
126.49908311631944
 10
-77.867081705729163
 20
130.50021701388889
 10
-75.873060438368043
 20
130.50021701388889
 97
        0
 75
     0
 76
     1
 98
        1
 10
0.0
 20
0.0
  0
POLYLINE
  5
14E
100
AcDbEntity
  8
EBENE_1
 62
   250
100
AcDb2dPolyline
 66
     1
 10
0.0
 20
0.0
 30
0.0
  0
VERTEX
  5
14F
100
AcDbEntity
  8
EBENE_1
 62
   250
100
AcDbVertex
100
AcDb2dVertex
 10
-89.915614
 20
159.449527
 30
0.0
  0
VERTEX
  5
150
100
AcDbEntity
  8
EBENE_1
 62
   250
100
AcDbVertex
100
AcDb2dVertex
 10
-88.918604
 20
155.448393
 30
0.0
  0
VERTEX
  5
151
100
AcDbEntity
  8
EBENE_1
 62
   250
100
AcDbVertex
100
AcDb2dVertex
 10
-90.912625
 20
155.448393
 30
0.0
  0
SEQEND
  5
152
100
AcDbEntity
  8
EBENE_1
 62
   250
  0
HATCH
  5
14D
100
AcDbEntity
  8
EBENE_1
 62
   250
100
AcDbHatch
 10
0.0
 20
0.0
 30
0.0
210
0.0
220
0.0
230
1.0
  2
SOLID
 70
     1
 71
     0
 91
        1
 92
        3
 72
     0
 73
     0
 93
        3
 10
-89.915614149305554
 20
159.44952663845484
 10
-88.918603515624994
 20
155.4483927408854
 10
-90.9126247829861
 20
155.4483927408854
 97
        0
 75
     0
 76
     1
 98
        1
 10
0.0
 20
0.0
  0
POLYLINE
  5
148
100
AcDbEntity
  8
EBENE_1
 62
   250
100
AcDb2dPolyline
 66
     1
 10
0.0
 20
0.0
 30
0.0
  0
VERTEX
  5
149
100
AcDbEntity
  8
EBENE_1
 62
   250
100
AcDbVertex
100
AcDb2dVertex
 10
-76.64235
 20
112.590199
 30
0.0
  0
VERTEX
  5
14A
100
AcDbEntity
  8
EBENE_1
 62
   250
100
AcDbVertex
100
AcDb2dVertex
 10
-75.64534
 20
108.589065
 30
0.0
  0
VERTEX
  5
14B
100
AcDbEntity
  8
EBENE_1
 62
   250
100
AcDbVertex
100
AcDb2dVertex
 10
-77.639361
 20
108.589065
 30
0.0
  0
SEQEND
  5
14C
100
AcDbEntity
  8
EBENE_1
 62
   250
  0
HATCH
  5
147
100
AcDbEntity
  8
EBENE_1
 62
   250
100
AcDbHatch
 10
0.0
 20
0.0
 30
0.0
210
0.0
220
0.0
230
1.0
  2
SOLID
 70
     1
 71
     0
 91
        1
 92
        3
 72
     0
 73
     0
 93
        3
 10
-76.642350260416663
 20
112.59019911024305
 10
-75.645339626736103
 20
108.5890652126736
 10
-77.639360894097209
 20
108.5890652126736
 97
        0
 75
     0
 76
     1
 98
        1
 10
0.0
 20
0.0
  0
MTEXT
  5
146
100
AcDbEntity
  8
EBENE_1
 62
   250
100
AcDbMText
 10
-94.470719
 20
122.244275
 30
0.0
 40
3.674769
 41
0.0
 71
     1
 72
     2
  1
\fMyriad Roman|b0|i0;80j6 
  7
STD
210
0.0
220
0.0
230
1.0
 11
1.000001
 21
0.0
 31
0.0
 73
     1
 44
1.0
  0
MTEXT
  5
145
100
AcDbEntity
  8
EBENE_1
 62
   250
100
AcDbMText
 10
-81.881135
 20
122.092691
 30
0.0
 40
3.674769
 41
0.0
 71
     1
 72
     2
  1
\fMyriad Roman|b0|i0;14k6 
  7
STD
210
0.0
220
0.0
230
1.0
 11
1.000001
 21
0.0
 31
0.0
 73
     1
 44
1.0
  0
MTEXT
  5
144
100
AcDbEntity
  8
EBENE_1
 62
   250
100
AcDbMText
 10
26.412514
 20
121.391959
 30
0.0
 40
3.674769
 41
0.0
 71
     1
 72
     2
  1
\fMyriad Roman|b0|i0;74.0 
  7
STD
210
0.0
220
0.0
230
1.0
 11
1.000001
 21
0.0
 31
0.0
 73
     1
 44
1.0
  0
LINE
  5
143
100
AcDbEntity
  8
EBENE_1
 62
   250
100
AcDbLine
 10
30.456883
 20
123.494271
 30
0.0
 11
30.456883
 21
156.925305
 31
0.0
  0
LINE
  5
142
100
AcDbEntity
  8
EBENE_1
 62
   250
100
AcDbLine
 10
30.602266
 20
82.78909
 30
0.0
 11
30.602266
 21
114.619705
 31
0.0
  0
POLYLINE
  5
13D
100
AcDbEntity
  8
EBENE_1
 62
   250
100
AcDb2dPolyline
 66
     1
 10
0.0
 20
0.0
 30
0.0
  0
VERTEX
  5
13E
100
AcDbEntity
  8
EBENE_1
 62
   250
100
AcDbVertex
100
AcDb2dVertex
 10
30.602266
 20
156.264191
 30
0.0
  0
VERTEX
  5
13F
100
AcDbEntity
  8
EBENE_1
 62
   250
100
AcDbVertex
100
AcDb2dVertex
 10
31.599277
 20
152.263057
 30
0.0
  0
VERTEX
  5
140
100
AcDbEntity
  8
EBENE_1
 62
   250
100
AcDbVertex
100
AcDb2dVertex
 10
29.605256
 20
152.263057
 30
0.0
  0
SEQEND
  5
141
100
AcDbEntity
  8
EBENE_1
 62
   250
  0
HATCH
  5
13C
100
AcDbEntity
  8
EBENE_1
 62
   250
100
AcDbHatch
 10
0.0
 20
0.0
 30
0.0
210
0.0
220
0.0
230
1.0
  2
SOLID
 70
     1
 71
     0
 91
        1
 92
        3
 72
     0
 73
     0
 93
        3
 10
30.602266438802079
 20
156.26419135199652
 10
31.599277072482636
 20
152.26305745442707
 10
29.605255805121526
 20
152.26305745442707
 97
        0
 75
     0
 76
     1
 98
        1
 10
0.0
 20
0.0
  0
POLYLINE
  5
137
100
AcDbEntity
  8
EBENE_1
 62
   250
100
AcDb2dPolyline
 66
     1
 10
0.0
 20
0.0
 30
0.0
  0
VERTEX
  5
138
100
AcDbEntity
  8
EBENE_1
 62
   250
100
AcDbVertex
100
AcDb2dVertex
 10
29.605256
 20
86.433312
 30
0.0
  0
VERTEX
  5
139
100
AcDbEntity
  8
EBENE_1
 62
   250
100
AcDbVertex
100
AcDb2dVertex
 10
31.599277
 20
86.433312
 30
0.0
  0
VERTEX
  5
13A
100
AcDbEntity
  8
EBENE_1
 62
   250
100
AcDbVertex
100
AcDb2dVertex
 10
30.602266
 20
82.432178
 30
0.0
  0
SEQEND
  5
13B
100
AcDbEntity
  8
EBENE_1
 62
   250
  0
HATCH
  5
136
100
AcDbEntity
  8
EBENE_1
 62
   250
100
AcDbHatch
 10
0.0
 20
0.0
 30
0.0
210
0.0
220
0.0
230
1.0
  2
SOLID
 70
     1
 71
     0
 91
        1
 92
        3
 72
     0
 73
     0
 93
        3
 10
29.605255805121526
 20
86.433311631944434
 10
31.599277072482636
 20
86.433311631944434
 10
30.602266438802079
 20
82.432177734374989
 97
        0
 75
     0
 76
     1
 98
        1
 10
0.0
 20
0.0
  0
MTEXT
  5
135
100
AcDbEntity
  8
EBENE_1
 62
   250
100
AcDbMText
 10
60.677778
 20
273.563893
 30
0.0
 40
3.674769
 41
0.0
 71
     1
 72
     2
  1
\fMyriad Roman|b0|i0;
  7
STD
210
0.0
220
0.0
230
1.0
 11
1.000001
 21
0.0
 31
0.0
 73
     1
 44
1.0
  0
MTEXT
  5
134
100
AcDbEntity
  8
EBENE_1
 62
   250
100
AcDbMText
 10
83.842944
 20
259.360454
 30
0.0
 40
3.674769
 41
0.0
 71
     1
 72
     2
  1
\fMyriad Roman|b0|i0;233.5 
  7
STD
210
0.0
220
0.0
230
1.0
 11
1.000001
 21
0.0
 31
0.0
 73
     1
 44
1.0
  0
MTEXT
  5
133
100
AcDbEntity
  8
EBENE_1
 62
   250
100
AcDbMText
 10
40.354987
 20
246.200189
 30
0.0
 40
3.674769
 41
0.0
 71
     1
 72
     2
  1
\fMyriad Roman|b0|i0;141 
  7
STD
210
0.0
220
0.0
230
1.0
 11
1.000001
 21
0.0
 31
0.0
 73
     1
 44
1.0
  0
LINE
  5
132
100
AcDbEntity
  8
EBENE_1
 62
   250
100
AcDbLine
 10
-67.059817
 20
112.672881
 30
0.0
 11
-67.059817
 21
126.477379
 31
0.0
  0
LINE
  5
131
100
AcDbEntity
  8
EBENE_1
 62
   250
100
AcDbLine
 10
101.510772
 20
172.451317
 30
0.0
 11
101.510772
 21
164.451116
 31
0.0
  0
LINE
  5
130
100
AcDbEntity
  8
EBENE_1
 62
   250
100
AcDbLine
 10
101.010544
 20
172.451317
 30
0.0
 11
101.010544
 21
164.451116
 31
0.0
  0
LINE
  5
12F
100
AcDbEntity
  8
EBENE_1
 62
   250
100
AcDbLine
 10
100.510661
 20
172.451317
 30
0.0
 11
100.510661
 21
164.451116
 31
0.0
  0
LINE
  5
12E
100
AcDbEntity
  8
EBENE_1
 62
   250
100
AcDbLine
 10
100.010777
 20
172.451317
 30
0.0
 11
100.010777
 21
164.451116
 31
0.0
  0
LINE
  5
12D
100
AcDbEntity
  8
EBENE_1
 62
   250
100
AcDbLine
 10
99.51055
 20
172.451317
 30
0.0
 11
99.51055
 21
164.451116
 31
0.0
  0
LINE
  5
12C
100
AcDbEntity
  8
EBENE_1
 62
   250
100
AcDbLine
 10
98.510783
 20
164.451116
 30
0.0
 11
103.010767
 21
164.451116
 31
0.0
  0
LINE
  5
12B
100
AcDbEntity
  8
EBENE_1
 62
   250
100
AcDbLine
 10
98.510783
 20
172.451317
 30
0.0
 11
103.010767
 21
172.451317
 31
0.0
  0
LINE
  5
12A
100
AcDbEntity
  8
EBENE_1
 62
   250
100
AcDbLine
 10
98.510783
 20
164.951344
 30
0.0
 11
98.510783
 21
171.951089
 31
0.0
  0
POLYLINE
  5
125
100
AcDbEntity
  8
EBENE_1
 62
   250
100
AcDb2dPolyline
 66
     1
 10
0.0
 20
0.0
 30
0.0
  0
VERTEX
  5
126
100
AcDbEntity
  8
EBENE_1
 62
   250
100
AcDbVertex
100
AcDb2dVertex
 10
97.510672
 20
164.951344
 30
0.0
  0
VERTEX
  5
127
100
AcDbEntity
  8
EBENE_1
 62
   250
100
AcDbVertex
100
AcDb2dVertex
 10
98.510783
 20
164.951344
 30
0.0
  0
VERTEX
  5
128
100
AcDbEntity
  8
EBENE_1
 62
   250
100
AcDbVertex
100
AcDb2dVertex
 10
98.510783
 20
164.451116
 30
0.0
  0
SEQEND
  5
129
100
AcDbEntity
  8
EBENE_1
 62
   250
  0
POLYLINE
  5
11F
100
AcDbEntity
  8
EBENE_1
 62
   250
100
AcDb2dPolyline
 66
     1
 10
0.0
 20
0.0
 30
0.0
  0
VERTEX
  5
120
100
AcDbEntity
  8
EBENE_1
 62
   250
100
AcDbVertex
100
AcDb2dVertex
 10
97.510672
 20
172.451317
 30
0.0
  0
VERTEX
  5
121
100
AcDbEntity
  8
EBENE_1
 62
   250
100
AcDbVertex
100
AcDb2dVertex
 10
97.510672
 20
171.951089
 30
0.0
  0
VERTEX
  5
122
100
AcDbEntity
  8
EBENE_1
 62
   250
100
AcDbVertex
100
AcDb2dVertex
 10
98.510783
 20
171.951089
 30
0.0
  0
VERTEX
  5
123
100
AcDbEntity
  8
EBENE_1
 62
   250
100
AcDbVertex
100
AcDb2dVertex
 10
98.510783
 20
172.451317
 30
0.0
  0
SEQEND
  5
124
100
AcDbEntity
  8
EBENE_1
 62
   250
  0
POLYLINE
  5
116
100
AcDbEntity
  8
EBENE_1
 62
   250
100
AcDb2dPolyline
 66
     1
 10
0.0
 20
0.0
 30
0.0
  0
VERTEX
  5
117
100
AcDbEntity
  8
EBENE_1
 62
   250
100
AcDbVertex
100
AcDb2dVertex
 10
96.010677
 20
171.951089
 30
0.0
  0
VERTEX
  5
118
100
AcDbEntity
  8
EBENE_1
 62
   250
100
AcDbVertex
100
AcDb2dVertex
 10
97.010788
 20
172.451317
 30
0.0
  0
VERTEX
  5
119
100
AcDbEntity
  8
EBENE_1
 62
   250
100
AcDbVertex
100
AcDb2dVertex
 10
97.510672
 20
172.451317
 30
0.0
  0
VERTEX
  5
11A
100
AcDbEntity
  8
EBENE_1
 62
   250
100
AcDbVertex
100
AcDb2dVertex
 10
97.510672
 20
164.451116
 30
0.0
  0
VERTEX
  5
11B
100
AcDbEntity
  8
EBENE_1
 62
   250
100
AcDbVertex
100
AcDb2dVertex
 10
97.010788
 20
164.451116
 30
0.0
  0
VERTEX
  5
11C
100
AcDbEntity
  8
EBENE_1
 62
   250
100
AcDbVertex
100
AcDb2dVertex
 10
96.010677
 20
164.951344
 30
0.0
  0
VERTEX
  5
11D
100
AcDbEntity
  8
EBENE_1
 62
   250
100
AcDbVertex
100
AcDb2dVertex
 10
96.010677
 20
171.951089
 30
0.0
  0
SEQEND
  5
11E
100
AcDbEntity
  8
EBENE_1
 62
   250
  0
LINE
  5
115
100
AcDbEntity
  8
EBENE_1
 62
   250
100
AcDbLine
 10
103.068989
 20
202.334764
 30
0.0
 11
103.068989
 21
248.99152
 31
0.0
  0
INSERT
  5
3A
100
AcDbEntity
  8
EBENE_1
 62
     7
100
AcDbBlockReference
  2
AI9-BLK1
 10
57.582876
 20
200.042398
 30
0.0
  0
POLYLINE
  5
34
100
AcDbEntity
  8
EBENE_1
 62
   250
100
AcDb2dPolyline
 66
     1
 10
0.0
 20
0.0
 30
0.0
 70
     1
  0
VERTEX
  5
35
100
AcDbEntity
  8
EBENE_1
 62
   250
100
AcDbVertex
100
AcDb2dVertex
 10
12.627653
 20
236.867885
 30
0.0
  0
VERTEX
  5
36
100
AcDbEntity
  8
EBENE_1
 62
   250
100
AcDbVertex
100
AcDb2dVertex
 10
16.628098
 20
237.864895
 30
0.0
  0
VERTEX
  5
37
100
AcDbEntity
  8
EBENE_1
 62
   250
100
AcDbVertex
100
AcDb2dVertex
 10
16.628098
 20
235.870874
 30
0.0
  0
SEQEND
  5
38
100
AcDbEntity
  8
EBENE_1
 62
   250
  0
HATCH
  5
33
100
AcDbEntity
  8
EBENE_1
 62
   250
100
AcDbHatch
 10
0.0
 20
0.0
 30
0.0
210
0.0
220
0.0
230
1.0
  2
SOLID
 70
     1
 71
     0
 91
        1
 92
        3
 72
     0
 73
     1
 93
        3
 10
12.627652994791665
 20
236.86788465711803
 10
16.628097873263886
 20
237.86489529079859
 10
16.628097873263886
 20
235.87087402343747
 97
        0
 75
     0
 76
     1
 98
        1
 10
0.0
 20
0.0
  0
LINE
  5
32
100
AcDbEntity
  8
EBENE_1
 62
   250
100
AcDbLine
 10
12.341021
 20
226.770827
 30
0.0
 11
12.341021
 21
239.207104
 31
0.0
  0
LINE
  5
31
100
AcDbEntity
  8
EBENE_1
 62
   250
100
AcDbLine
 10
13.471012
 20
236.868574
 30
0.0
 11
47.376953
 21
236.868574
 31
0.0
  0
LINE
  5
30
100
AcDbEntity
  8
EBENE_1
 62
   250
100
AcDbLine
 10
57.604753
 20
236.868401
 30
0.0
 11
102.435091
 21
236.868401
 31
0.0
  0
MTEXT
  5
2F
100
AcDbEntity
  8
EBENE_1
 62
   250
100
AcDbMText
 10
49.933903
 20
239.018026
 30
0.0
 40
3.674769
 41
0.0
 71
     1
 72
     2
  1
\fMyriad Roman|b0|i0;90 
  7
STD
210
0.0
220
0.0
230
1.0
 11
1.000001
 21
0.0
 31
0.0
 73
     1
 44
1.0
  0
POLYLINE
  5
2A
100
AcDbEntity
  8
EBENE_1
 62
   250
100
AcDb2dPolyline
 66
     1
 10
0.0
 20
0.0
 30
0.0
 70
     1
  0
VERTEX
  5
2B
100
AcDbEntity
  8
EBENE_1
 62
   250
100
AcDbVertex
100
AcDb2dVertex
 10
102.856771
 20
236.906986
 30
0.0
  0
VERTEX
  5
2C
100
AcDbEntity
  8
EBENE_1
 62
   250
100
AcDbVertex
100
AcDb2dVertex
 10
98.855637
 20
235.909976
 30
0.0
  0
VERTEX
  5
2D
100
AcDbEntity
  8
EBENE_1
 62
   250
100
AcDbVertex
100
AcDb2dVertex
 10
98.855637
 20
237.903997
 30
0.0
  0
SEQEND
  5
2E
100
AcDbEntity
  8
EBENE_1
 62
   250
  0
HATCH
  5
29
100
AcDbEntity
  8
EBENE_1
 62
   250
100
AcDbHatch
 10
0.0
 20
0.0
 30
0.0
210
0.0
220
0.0
230
1.0
  2
SOLID
 70
     1
 71
     0
 91
        1
 92
        3
 72
     0
 73
     1
 93
        3
 10
102.85677083333333
 20
236.9069864908854
 10
98.855636935763883
 20
235.90997585720484
 10
98.855636935763883
 20
237.90399712456596
 97
        0
 75
     0
 76
     1
 98
        1
 10
0.0
 20
0.0
  0
ENDSEC
  0
SECTION
  2
OBJECTS
  0
DICTIONARY
  5
19
100
AcDbDictionary
280
     0
281
     1
  3
ACAD_GROUP
350
1A
  3
ACAD_MLINESTYLE
350
1B
  3
ACAD_LAYOUT
350
1E
  3
ACAD_PLOTSETTINGS
350
22
  3
ACAD_PLOTSTYLENAME
350
1F
  3
ACAD_WIPEOUT_VARS
350
23
  0
DICTIONARY
  5
1A
102
{ACAD_REACTORS
330
19
102
}
100
AcDbDictionary
280
     0
281
     1
  0
DICTIONARY
  5
1B
102
{ACAD_REACTORS
330
19
102
}
100
AcDbDictionary
280
     0
281
     1
  3
Standard
350
1C
  0
MLINESTYLE
  5
1C
102
{ACAD_REACTORS
330
1B
102
}
100
AcDbMlineStyle
  2
Standard
 70
     0
  3

 62
     0
 51
90.0
 52
90.0
 71
     2
 49
0.5
 62
   256
  6
BYLAYER
 49
-0.5
 62
   256
  6
BYLAYER
  0
ACDBDICTIONARYWDFLT
  5
1F
102
{ACAD_REACTORS
330
19
102
}
100
AcDbDictionary
281
     1
  3
Normal
350
1D
100
AcDbDictionaryWithDefault
340
1D
  0
ACDBPLACEHOLDER
  5
1D
102
{ACAD_REACTORS
330
1F
102
}
  0
LAYOUT
  5
20
102
{ACAD_REACTORS
330
1E
102
}
100
AcDbPlotSettings
  1

  2

  4

  6

 40
0.0
 41
0.0
 42
0.0
 43
0.0
 44
0.0
 45
0.0
 46
0.0
 47
0.0
 48
0.0
 49
0.0
140
0.0
141
0.0
142
1.0
143
1.0
 70
  1024
 72
     0
 73
     0
 74
     0
  7

 75
     0
147
1.0
148
0.0
149
0.0
100
AcDbLayout
  1
Model
 70
     0
 71
     0
 10
0.0
 20
0.0
 11
0.0
 21
0.0
 12
0.0
 22
0.0
 32
0.0
 14
0.0
 24
0.0
 34
0.0
 15
0.0
 25
0.0
 35
0.0
146
0.0
 13
0.0
 23
0.0
 33
0.0
 16
0.0
 26
0.0
 36
0.0
 17
0.0
 27
0.0
 37
0.0
 76
     0
330
A
331
0
345
0
346
0
  0
LAYOUT
  5
21
102
{ACAD_REACTORS
330
1E
102
}
100
AcDbPlotSettings
  1

  2

  4

  6

 40
0.0
 41
0.0
 42
0.0
 43
0.0
 44
0.0
 45
0.0
 46
0.0
 47
0.0
 48
0.0
 49
0.0
140
0.0
141
0.0
142
1.0
143
1.0
 70
     0
 72
     0
 73
     0
 74
     0
  7

 75
     0
147
1.0
148
0.0
149
0.0
100
AcDbLayout
  1
Layout1
 70
     0
 71
     0
 10
0.0
 20
0.0
 11
0.0
 21
0.0
 12
0.0
 22
0.0
 32
0.0
 14
0.0
 24
0.0
 34
0.0
 15
0.0
 25
0.0
 35
0.0
146
0.0
 13
0.0
 23
0.0
 33
0.0
 16
0.0
 26
0.0
 36
0.0
 17
0.0
 27
0.0
 37
0.0
 76
     0
330
B
331
0
345
0
346
0
  0
DICTIONARY
  5
1E
102
{ACAD_REACTORS
330
19
102
}
100
AcDbDictionary
280
     0
281
     1
  3
Layout1
350
21
  3
Model
350
20
  0
DICTIONARY
  5
22
102
{ACAD_REACTORS
330
19
102
}
100
AcDbDictionary
280
     0
281
     1
  0
WIPEOUTVARIABLES
  5
23
100
AcDbWipeoutVariables
 70
     1
  0
ENDSEC
  0
EOF
