  0
SECTION
  2
HEADER
  9
$ACADVER
  1
AC1015
  9
$ACADMAINTVER
 70
     6
  9
$DWGCODEPAGE
  3
ANSI_932
  9
$INSBASE
 10
0.0
 20
0.0
 30
0.0
  9
$EXTMIN
 10
-106.859972
 20
67.776053
 30
1.000000E+20
  9
$EXTMAX
 10
244.294822
 20
230.152705
 30
-1.000000E+20
  9
$LIMMIN
 10
-106.859972
 20
67.776053
  9
$LIMMAX
 10
244.294822
 20
230.152705
  9
$ORTHOMODE
 70
     0
  9
$REGENMODE
 70
     1
  9
$FILLMODE
 70
     1
  9
$QTEXTMODE
 70
     0
  9
$MIRRTEXT
 70
     1
  9
$LTSCALE
 40
1.0
  9
$ATTMODE
 70
     1
  9
$TEXTSIZE
 40
0.2
  9
$TRACEWID
 40
0.05
  9
$TEXTSTYLE
  7
Standard
  9
$CLAYER
  8
0
  9
$CELTYPE
  6
Continuous
  9
$CECOLOR
 62
   256
  9
$CELTSCALE
 40
1.0
  9
$DISPSILH
 70
     0
  9
$DIMSCALE
 40
1.0
  9
$DIMASZ
 40
0.18
  9
$DIMEXO
 40
0.0625
  9
$DIMDLI
 40
0.38
  9
$DIMRND
 40
0.0
  9
$DIMDLE
 40
0.0
  9
$DIMEXE
 40
0.18
  9
$DIMTP
 40
0.0
  9
$DIMTM
 40
0.0
  9
$DIMTXT
 40
0.18
  9
$DIMCEN
 40
0.09
  9
$DIMTSZ
 40
0.0
  9
$DIMTOL
 70
     0
  9
$DIMLIM
 70
     0
  9
$DIMTIH
 70
     1
  9
$DIMTOH
 70
     1
  9
$DIMSE1
 70
     0
  9
$DIMSE2
 70
     0
  9
$DIMTAD
 70
     0
  9
$DIMZIN
 70
     0
  9
$DIMBLK
  1

  9
$DIMASO
 70
     1
  9
$DIMSHO
 70
     1
  9
$DIMPOST
  1

  9
$DIMAPOST
  1

  9
$DIMALT
 70
     0
  9
$DIMALTD
 70
     2
  9
$DIMALTF
 40
25.4
  9
$DIMLFAC
 40
1.0
  9
$DIMTOFL
 70
     0
  9
$DIMTVP
 40
0.0
  9
$DIMTIX
 70
     0
  9
$DIMSOXD
 70
     0
  9
$DIMSAH
 70
     0
  9
$DIMBLK1
  1

  9
$DIMBLK2
  1

  9
$DIMSTYLE
  2
Standard
  9
$DIMCLRD
 70
     0
  9
$DIMCLRE
 70
     0
  9
$DIMCLRT
 70
     0
  9
$DIMTFAC
 40
1.0
  9
$DIMGAP
 40
0.09
  9
$DIMJUST
 70
     0
  9
$DIMSD1
 70
     0
  9
$DIMSD2
 70
     0
  9
$DIMTOLJ
 70
     1
  9
$DIMTZIN
 70
     0
  9
$DIMALTZ
 70
     0
  9
$DIMALTTZ
 70
     0
  9
$DIMUPT
 70
     0
  9
$DIMDEC
 70
     4
  9
$DIMTDEC
 70
     4
  9
$DIMALTU
 70
     2
  9
$DIMALTTD
 70
     2
  9
$DIMTXSTY
  7
Standard
  9
$DIMAUNIT
 70
     0
  9
$DIMADEC
 70
     0
  9
$DIMALTRND
 40
0.0
  9
$DIMAZIN
 70
     0
  9
$DIMDSEP
 70
     0
  9
$DIMATFIT
 70
     3
  9
$DIMFRAC
 70
     0
  9
$DIMLDRBLK
  1

  9
$DIMLUNIT
 70
     2
  9
$DIMLWD
 70
     0
  9
$DIMLWE
 70
     0
  9
$DIMTMOVE
 70
     0
  9
$LUNITS
 70
     2
  9
$LUPREC
 70
     4
  9
$SKETCHINC
 40
0.1
  9
$FILLETRAD
 40
0.0
  9
$AUNITS
 70
     0
  9
$AUPREC
 70
     0
  9
$MENU
  1
acad
  9
$ELEVATION
 40
0.0
  9
$PELEVATION
 40
0.0
  9
$THICKNESS
 40
0.0
  9
$LIMCHECK
 70
     0
  9
$CHAMFERA
 40
0.0
  9
$CHAMFERB
 40
0.0
  9
$CHAMFERC
 40
0.0
  9
$CHAMFERD
 40
0.0
  9
$SKPOLY
 70
     0
  9
$TDCREATE
 40
0.000000000
  9
$TDUCREATE
 40
0.000000000
  9
$TDUPDATE
 40
0.000000000
  9
$TDUUPDATE
 40
0.000000000
  9
$TDINDWG
 40
0.0000000000
  9
$TDUSRTIMER
 40
0.0000000000
  9
$USRTIMER
 70
     1
  9
$ANGBASE
 50
0.0
  9
$ANGDIR
 70
     0
  9
$PDMODE
 70
     0
  9
$PDSIZE
 40
0.0
  9
$PLINEWID
 40
0.0
  9
$SPLFRAME
 70
     0
  9
$SPLINETYPE
 70
     6
  9
$SPLINESEGS
 70
     8
  9
$HANDSEED
  5
21E
  9
$SURFTAB1
 70
     6
  9
$SURFTAB2
 70
     6
  9
$SURFTYPE
 70
     6
  9
$SURFU
 70
     6
  9
$SURFV
 70
     6
  9
$UCSBASE
  2

  9
$UCSNAME
  2

  9
$UCSORG
 10
0.0
 20
0.0
 30
0.0
  9
$UCSXDIR
 10
1.0
 20
0.0
 30
0.0
  9
$UCSYDIR
 10
0.0
 20
1.0
 30
0.0
  9
$UCSORTHOREF
  2

  9
$UCSORTHOVIEW
 70
     0
  9
$UCSORGTOP
 10
0.0
 20
0.0
 30
0.0
  9
$UCSORGBOTTOM
 10
0.0
 20
0.0
 30
0.0
  9
$UCSORGLEFT
 10
0.0
 20
0.0
 30
0.0
  9
$UCSORGRIGHT
 10
0.0
 20
0.0
 30
0.0
  9
$UCSORGFRONT
 10
0.0
 20
0.0
 30
0.0
  9
$UCSORGBACK
 10
0.0
 20
0.0
 30
0.0
  9
$PUCSBASE
  2

  9
$PUCSNAME
  2

  9
$PUCSORG
 10
0.0
 20
0.0
 30
0.0
  9
$PUCSXDIR
 10
1.0
 20
0.0
 30
0.0
  9
$PUCSYDIR
 10
0.0
 20
1.0
 30
0.0
  9
$PUCSORTHOREF
  2

  9
$PUCSORTHOVIEW
 70
     0
  9
$PUCSORGTOP
 10
0.0
 20
0.0
 30
0.0
  9
$PUCSORGBOTTOM
 10
0.0
 20
0.0
 30
0.0
  9
$PUCSORGLEFT
 10
0.0
 20
0.0
 30
0.0
  9
$PUCSORGRIGHT
 10
0.0
 20
0.0
 30
0.0
  9
$PUCSORGFRONT
 10
0.0
 20
0.0
 30
0.0
  9
$PUCSORGBACK
 10
0.0
 20
0.0
 30
0.0
  9
$USERI1
 70
     0
  9
$USERI2
 70
     0
  9
$USERI3
 70
     0
  9
$USERI4
 70
     0
  9
$USERI5
 70
     0
  9
$USERR1
 40
0.0
  9
$USERR2
 40
0.0
  9
$USERR3
 40
0.0
  9
$USERR4
 40
0.0
  9
$USERR5
 40
0.0
  9
$WORLDVIEW
 70
     1
  9
$SHADEDGE
 70
     3
  9
$SHADEDIF
 70
    70
  9
$TILEMODE
 70
     1
  9
$MAXACTVP
 70
    16
  9
$PINSBASE
 10
0.0
 20
0.0
 30
0.0
  9
$PLIMCHECK
 70
     0
  9
$PEXTMIN
 10
1.000000E+20
 20
1.000000E+20
 30
1.000000E+20
  9
$PEXTMAX
 10
-1.000000E+20
 20
-1.000000E+20
 30
-1.000000E+20
  9
$PLIMMIN
 10
0.0
 20
0.0
  9
$PLIMMAX
 10
12.0
 20
9.0
  9
$UNITMODE
 70
     0
  9
$VISRETAIN
 70
     0
  9
$PLINEGEN
 70
     1
  9
$PSLTSCALE
 70
     0
  9
$TREEDEPTH
 70
  3020
  9
$CMLSTYLE
  2
Standard
  9
$CMLJUST
 70
     0
  9
$CMLSCALE
 40
1.0
  9
$PROXYGRAPHICS
 70
     0
  9
$MEASUREMENT
 70
     0
  9
$CELWEIGHT
370
     0
  9
$ENDCAPS
280
     0
  9
$JOINSTYLE
280
     0
  9
$LWDISPLAY
290
     0
  9
$INSUNITS
 70
     0
  9
$HYPERLINKBASE
  1

  9
$XEDIT
290
     1
  9
$CEPSNTYPE
380
     0
  9
$PSTYLEMODE
290
     1
  9
$FINGERPRINTGUID
  2

  9
$VERSIONGUID
  2

  9
$EXTNAMES
290
     1
  9
$PSVPSCALE
 40
0.0
  0
ENDSEC
  0
SECTION
  2
CLASSES
  0
CLASS
  1
LWPOLYLINE
  2
AcDbPolyline
  3
"AutoCAD"
 90
        0
280
     0
281
     1
  0
CLASS
  1
IMAGE
  2
AcDbRasterImage
  3
ISM
 90
      127
280
     0
281
     1
  0
CLASS
  1
OLE2FRAME
  2
AcDbOle2Frame
  3
""
 90
        0
280
     0
281
     1
  0
CLASS
  1
HATCH
  2
AcDbHatch
  3
"ACAD_SEDONA"
 90
        0
280
     0
281
     1
  0
CLASS
  1
DICTIONARYVAR
  2
AcDbDictionaryVar
  3
"AutoCAD"
 90
        0
280
     0
281
     0
  0
CLASS
  1
RASTERVARIABLES
  2
AcDbRasterVariables
  3
ISM
 90
        0
280
     0
281
     0
  0
CLASS
  1
IMAGEDEF
  2
AcDbRasterImageDef
  3
ISM
 90
        0
280
     0
281
     0
  0
CLASS
  1
IMAGEDEF_REACTOR
  2
AcDbRasterImageDefReactor
  3
ISM
 90
        1
280
     0
281
     0
  0
CLASS
  1
IDBUFFER
  2
AcDbIdBuffer
  3
"Acad"
 90
        0
280
     0
281
     0
  0
CLASS
  1
SPATIAL_FILTER
  2
AcDbSpatialFilter
  3
"Acad"
 90
        0
280
     0
281
     0
  0
CLASS
  1
XRECORD
  2
AcDbXrecord
  3
"<Built In>"
 90
        0
280
     0
281
     0
  0
CLASS
  1
SORTENTSTABLE
  2
AcDbSortentsTable
  3
"AutoCAD"
 90
        0
280
     0
281
     0
  0
CLASS
  1
LAYER_INDEX
  2
AcDbLayerIndex
  3
"Acad"
 90
        0
280
     0
281
     0
  0
CLASS
  1
SPATIAL_INDEX
  2
AcDbSpatialIndex
  3
"Acad"
 90
        0
280
     0
281
     0
  0
CLASS
  1
OBJECT_PTR
  2
CAseDLPNTableRecord
  3
"ASE-LPNTableRecord"
 90
        1
280
     0
281
     0
  0
CLASS
  1
LAYOUT
  2
AcDbLayout
  3
"AutoCAD 2000"
 90
        1
280
     0
281
     0
  0
CLASS
  1
PLOTSETTINGS
  2
AcDbPlotSettings
  3
"AutoCAD 2000"
 90
        1
280
     0
281
     0
  0
CLASS
  1
ACDBDICTIONARYWDFLT
  2
AcDbDictionaryWithDefault
  3
"AutoCAD 2000"
 90
        1
280
     0
281
     0
  0
CLASS
  1
ACDBPLACEHOLDER
  2
AcDbPlaceHolder
  3
"AutoCAD 2000"
 90
        1
280
     0
281
     0
  0
CLASS
  1
VBA_PROJECT
  2
AcDbVbaProject
  3
"acadvba"
 90
        1
280
     0
281
     0
  0
CLASS
  1
WIPEOUT
  2
AcDbWipeout
  3
WipeOut|AutoCAD Express Tool|expresstools@autodesk.com
 90
      127
280
     0
281
     1
  0
CLASS
  1
WIPEOUTVARIABLES
  2
AcDbWipeoutVariables
  3
WipeOut|AutoCAD Express Tool|expresstools@autodesk.com
 90
        0
280
     0
281
     0
  0
CLASS
  1
RTEXT
  2
RText
  3
RText|AutoCAD Express Tool|expresstools@autodesk.com
 90
        0
280
     0
281
     1
  0
CLASS
  1
ARCALIGNEDTEXT
  2
AcDbArcAlignedText
  3
ATEXT|AutoCAD Express Tool|expresstools@autodesk.com
 90
        0
280
     0
281
     1
  0
ENDSEC
  0
SECTION
  2
TABLES
  0
TABLE
  2
VPORT
  5
7
100
AcDbSymbolTable
 70
     1
  0
VPORT
  5
15
100
AcDbSymbolTableRecord
100
AcDbViewportTableRecord
  2
*ACTIVE
 70
     0
 10
0.0
 20
0.0
 11
1.0
 21
1.0
 12
6.591288
 22
4.579184
 13
0.0
 23
0.0
 14
1.0
 24
1.0
 15
0.0
 25
0.0
 16
0.0
 26
0.0
 36
1.0
 17
0.0
 27
0.0
 37
0.0
 40
9.158369
 41
0.688564
 42
50.0
 43
0.0
 44
0.0
 50
0.0
 51
0.0
 71
     0
 72
   100
 73
     1
 74
     1
 75
     0
 76
     0
 77
     0
 78
     0
281
     0
 65
     0
110
0.0
120
0.0
130
0.0
111
1.0
121
0.0
131
0.0
112
0.0
122
1.0
132
0.0
345
0
346
0
 79
     0
146
0.0
  0
ENDTAB
  0
TABLE
  2
LTYPE
  5
4
100
AcDbSymbolTable
 70
     3
  0
LTYPE
  5
11
100
AcDbSymbolTableRecord
100
AcDbLinetypeTableRecord
  2
ByBlock
 70
    64
  3

 72
    65
 73
     0
 40
0.0
  0
LTYPE
  5
12
100
AcDbSymbolTableRecord
100
AcDbLinetypeTableRecord
  2
ByLayer
 70
    64
  3

 72
    65
 73
     0
 40
0.0
  0
LTYPE
  5
13
100
AcDbSymbolTableRecord
100
AcDbLinetypeTableRecord
  2
Continuous
 70
    64
  3
Solid line
 72
    65
 73
     0
 40
0.0
  0
ENDTAB
  0
TABLE
  2
LAYER
  5
2
100
AcDbSymbolTable
 70
     2
  0
LAYER
  5
14
100
AcDbSymbolTableRecord
100
AcDbLayerTableRecord
  2
0
 70
     0
 62
     7
  6
Continuous
290
     1
370
    -3
390
1D
  0
LAYER
  5
28
100
AcDbSymbolTableRecord
100
AcDbLayerTableRecord
  2
EBENE_1
 70
     0
 62
   160
  6
Continuous
290
     1
370
    -3
390
1F
  0
ENDTAB
  0
TABLE
  2
STYLE
  5
3
100
AcDbSymbolTable
 70
     5
  0
STYLE
  5
17
100
AcDbSymbolTableRecord
100
AcDbTextStyleTableRecord
  2
Standard
 70
     0
 40
0.0
 41
1.0
 50
0.0
 71
     0
 42
0.0
  3
txt
  4

  0
STYLE
  5
24
100
AcDbSymbolTableRecord
100
AcDbTextStyleTableRecord
  2
STD
 70
     0
 40
0.0
 41
1.0
 50
0.0
 71
     0
 42
0.0
  3
txt
  4

  0
STYLE
  5
25
100
AcDbSymbolTableRecord
100
AcDbTextStyleTableRecord
  2
TATESTD
 70
     4
 40
0.0
 41
1.0
 50
0.0
 71
     0
 42
0.0
  3
txt
  4

  0
STYLE
  5
26
100
AcDbSymbolTableRecord
100
AcDbTextStyleTableRecord
  2
KANJISTD
 70
     0
 40
0.0
 41
1.0
 50
0.0
 71
     0
 42
0.0
  3
txt
  4
extfont
  0
STYLE
  5
27
100
AcDbSymbolTableRecord
100
AcDbTextStyleTableRecord
  2
KANJITATE
 70
     4
 40
0.0
 41
1.0
 50
0.0
 71
     0
 42
0.0
  3
txt
  4
extfont
  0
ENDTAB
  0
TABLE
  2
VIEW
  5
5
100
AcDbSymbolTable
 70
     0
  0
ENDTAB
  0
TABLE
  2
UCS
  5
6
100
AcDbSymbolTable
 70
     0
  0
ENDTAB
  0
TABLE
  2
APPID
  5
8
100
AcDbSymbolTable
 70
     1
  0
APPID
  5
16
100
AcDbSymbolTableRecord
100
AcDbRegAppTableRecord
  2
ACAD
 70
     0
  0
ENDTAB
  0
TABLE
  2
DIMSTYLE
  5
9
100
AcDbSymbolTable
 70
     1
100
AcDbDimStyleTable
 71
     0
  0
DIMSTYLE
105
18
100
AcDbSymbolTableRecord
100
AcDbDimStyleTableRecord
  2
Standard
 70
     0
  3

  4

 40
1.0
 41
0.18
 42
0.0625
 43
0.38
 44
0.18
 45
0.0
 46
0.0
 47
0.0
 48
0.0
 71
     0
 72
     0
 73
     1
 74
     1
 75
     0
 76
     0
 77
     0
 78
     0
 79
     0
140
0.18
141
0.09
142
0.0
143
25.4
144
1.0
145
0.0
146
1.0
147
0.09
148
0.0
170
     0
171
     2
172
     0
173
     0
174
     0
175
     0
176
     0
177
     0
178
     0
179
     0
271
     4
272
     4
273
     2
274
     2
275
     0
276
     0
277
     2
278
    46
279
     0
280
     0
281
     0
282
     0
283
     1
284
     0
285
     0
286
     0
288
     0
340
17
341
0
342
0
343
0
344
0
371
    -2
372
    -2
  0
ENDTAB
  0
TABLE
  2
BLOCK_RECORD
  5
1
100
AcDbSymbolTable
 70
     0
  0
BLOCK_RECORD
  5
A
100
AcDbSymbolTableRecord
100
AcDbBlockTableRecord
  2
*MODEL_SPACE
340
20
  0
BLOCK_RECORD
  5
B
100
AcDbSymbolTableRecord
100
AcDbBlockTableRecord
  2
*PAPER_SPACE
340
21
  0
ENDTAB
  0
ENDSEC
  0
SECTION
  2
BLOCKS
  0
BLOCK
  5
D
100
AcDbEntity
  8
0
100
AcDbBlockBegin
  2
*MODEL_SPACE
 70
     0
 10
0.0
 20
0.0
 30
0.0
  3
*MODEL_SPACE
  1

  0
ENDBLK
  5
E
100
AcDbEntity
  8
0
100
AcDbBlockEnd
  0
BLOCK
  5
F
100
AcDbEntity
 67
     1
  8
0
100
AcDbBlockBegin
  2
*PAPER_SPACE
 70
     0
 10
0.0
 20
0.0
 30
0.0
  3
*PAPER_SPACE
  1

  0
ENDBLK
  5
10
100
AcDbEntity
 67
     1
  8
0
100
AcDbBlockEnd
  0
ENDSEC
  0
SECTION
  2
ENTITIES
  0
LINE
  5
21D
100
AcDbEntity
  8
EBENE_1
 62
   250
100
AcDbLine
 10
119.449384
 20
172.511434
 30
0.0
 11
119.449384
 21
164.511578
 31
0.0
  0
LINE
  5
21C
100
AcDbEntity
  8
EBENE_1
 62
   250
100
AcDbLine
 10
118.949156
 20
172.511434
 30
0.0
 11
118.949156
 21
164.511578
 31
0.0
  0
LINE
  5
21B
100
AcDbEntity
  8
EBENE_1
 62
   250
100
AcDbLine
 10
118.449273
 20
172.511434
 30
0.0
 11
118.449273
 21
164.511578
 31
0.0
  0
LINE
  5
21A
100
AcDbEntity
  8
EBENE_1
 62
   250
100
AcDbLine
 10
117.94939
 20
172.511434
 30
0.0
 11
117.94939
 21
164.511578
 31
0.0
  0
LINE
  5
219
100
AcDbEntity
  8
EBENE_1
 62
   250
100
AcDbLine
 10
117.449162
 20
172.511434
 30
0.0
 11
117.449162
 21
164.511578
 31
0.0
  0
LINE
  5
218
100
AcDbEntity
  8
EBENE_1
 62
   250
100
AcDbLine
 10
116.449395
 20
164.511578
 30
0.0
 11
120.949379
 21
164.511578
 31
0.0
  0
LINE
  5
217
100
AcDbEntity
  8
EBENE_1
 62
   250
100
AcDbLine
 10
116.449395
 20
172.511434
 30
0.0
 11
120.949379
 21
172.511434
 31
0.0
  0
LINE
  5
216
100
AcDbEntity
  8
EBENE_1
 62
   250
100
AcDbLine
 10
116.449395
 20
165.011461
 30
0.0
 11
116.449395
 21
172.011378
 31
0.0
  0
POLYLINE
  5
211
100
AcDbEntity
  8
EBENE_1
 62
   250
100
AcDb2dPolyline
 66
     1
 10
0.0
 20
0.0
 30
0.0
  0
VERTEX
  5
212
100
AcDbEntity
  8
EBENE_1
 62
   250
100
AcDbVertex
100
AcDb2dVertex
 10
115.449284
 20
165.011461
 30
0.0
  0
VERTEX
  5
213
100
AcDbEntity
  8
EBENE_1
 62
   250
100
AcDbVertex
100
AcDb2dVertex
 10
116.449395
 20
165.011461
 30
0.0
  0
VERTEX
  5
214
100
AcDbEntity
  8
EBENE_1
 62
   250
100
AcDbVertex
100
AcDb2dVertex
 10
116.449395
 20
164.511578
 30
0.0
  0
SEQEND
  5
215
100
AcDbEntity
  8
EBENE_1
 62
   250
  0
POLYLINE
  5
20B
100
AcDbEntity
  8
EBENE_1
 62
   250
100
AcDb2dPolyline
 66
     1
 10
0.0
 20
0.0
 30
0.0
  0
VERTEX
  5
20C
100
AcDbEntity
  8
EBENE_1
 62
   250
100
AcDbVertex
100
AcDb2dVertex
 10
115.449284
 20
172.511434
 30
0.0
  0
VERTEX
  5
20D
100
AcDbEntity
  8
EBENE_1
 62
   250
100
AcDbVertex
100
AcDb2dVertex
 10
115.449284
 20
172.011378
 30
0.0
  0
VERTEX
  5
20E
100
AcDbEntity
  8
EBENE_1
 62
   250
100
AcDbVertex
100
AcDb2dVertex
 10
116.449395
 20
172.011378
 30
0.0
  0
VERTEX
  5
20F
100
AcDbEntity
  8
EBENE_1
 62
   250
100
AcDbVertex
100
AcDb2dVertex
 10
116.449395
 20
172.511434
 30
0.0
  0
SEQEND
  5
210
100
AcDbEntity
  8
EBENE_1
 62
   250
  0
POLYLINE
  5
202
100
AcDbEntity
  8
EBENE_1
 62
   250
100
AcDb2dPolyline
 66
     1
 10
0.0
 20
0.0
 30
0.0
  0
VERTEX
  5
203
100
AcDbEntity
  8
EBENE_1
 62
   250
100
AcDbVertex
100
AcDb2dVertex
 10
113.949289
 20
172.011378
 30
0.0
  0
VERTEX
  5
204
100
AcDbEntity
  8
EBENE_1
 62
   250
100
AcDbVertex
100
AcDb2dVertex
 10
114.9494
 20
172.511434
 30
0.0
  0
VERTEX
  5
205
100
AcDbEntity
  8
EBENE_1
 62
   250
100
AcDbVertex
100
AcDb2dVertex
 10
115.449284
 20
172.511434
 30
0.0
  0
VERTEX
  5
206
100
AcDbEntity
  8
EBENE_1
 62
   250
100
AcDbVertex
100
AcDb2dVertex
 10
115.449284
 20
164.511578
 30
0.0
  0
VERTEX
  5
207
100
AcDbEntity
  8
EBENE_1
 62
   250
100
AcDbVertex
100
AcDb2dVertex
 10
114.9494
 20
164.511578
 30
0.0
  0
VERTEX
  5
208
100
AcDbEntity
  8
EBENE_1
 62
   250
100
AcDbVertex
100
AcDb2dVertex
 10
113.949289
 20
165.011461
 30
0.0
  0
VERTEX
  5
209
100
AcDbEntity
  8
EBENE_1
 62
   250
100
AcDbVertex
100
AcDb2dVertex
 10
113.949289
 20
172.011378
 30
0.0
  0
SEQEND
  5
20A
100
AcDbEntity
  8
EBENE_1
 62
   250
  0
POLYLINE
  5
1CF
100
AcDbEntity
  8
EBENE_1
 62
   250
100
AcDb2dPolyline
 66
     1
 10
0.0
 20
0.0
 30
0.0
  0
VERTEX
  5
1D0
100
AcDbEntity
  8
EBENE_1
 62
   250
100
AcDbVertex
100
AcDb2dVertex
 10
116.906215
 20
173.685522
 30
0.0
  0
VERTEX
  5
1D1
100
AcDbEntity
  8
EBENE_1
 62
   250
100
AcDbVertex
100
AcDb2dVertex
 10
113.478345
 20
173.685522
 30
0.0
  0
VERTEX
  5
1D2
100
AcDbEntity
  8
EBENE_1
 62
   250
100
AcDbVertex
100
AcDb2dVertex
 10
113.478345
 20
174.650494
 30
0.0
  0
VERTEX
  5
1D3
100
AcDbEntity
  8
EBENE_1
 62
   250
100
AcDbVertex
100
AcDb2dVertex
 10
112.026237
 20
174.650494
 30
0.0
  0
VERTEX
  5
1D4
100
AcDbEntity
  8
EBENE_1
 62
   250
100
AcDbVertex
100
AcDb2dVertex
 10
111.568384
 20
174.175415
 30
0.0
  0
VERTEX
  5
1D5
100
AcDbEntity
  8
EBENE_1
 62
   250
100
AcDbVertex
100
AcDb2dVertex
 10
111.56735
 20
174.626378
 30
0.0
  0
VERTEX
  5
1D6
100
AcDbEntity
  8
EBENE_1
 62
   250
100
AcDbVertex
100
AcDb2dVertex
 10
109.168186
 20
174.650494
 30
0.0
  0
VERTEX
  5
1D7
100
AcDbEntity
  8
EBENE_1
 62
   250
100
AcDbVertex
100
AcDb2dVertex
 10
109.169219
 20
174.175415
 30
0.0
  0
VERTEX
  5
1D8
100
AcDbEntity
  8
EBENE_1
 62
   250
100
AcDbVertex
100
AcDb2dVertex
 10
108.204248
 20
175.123505
 30
0.0
  0
VERTEX
  5
1D9
100
AcDbEntity
  8
EBENE_1
 62
   250
100
AcDbVertex
100
AcDb2dVertex
 10
106.308412
 20
175.124539
 30
0.0
  0
VERTEX
  5
1DA
100
AcDbEntity
  8
EBENE_1
 62
   250
100
AcDbVertex
100
AcDb2dVertex
 10
105.820242
 20
174.650494
 30
0.0
  0
VERTEX
  5
1DB
100
AcDbEntity
  8
EBENE_1
 62
   250
100
AcDbVertex
100
AcDb2dVertex
 10
105.34723
 20
175.124539
 30
0.0
  0
VERTEX
  5
1DC
100
AcDbEntity
  8
EBENE_1
 62
   250
100
AcDbVertex
100
AcDb2dVertex
 10
104.856304
 20
174.650494
 30
0.0
  0
VERTEX
  5
1DD
100
AcDbEntity
  8
EBENE_1
 62
   250
100
AcDbVertex
100
AcDb2dVertex
 10
104.382259
 20
175.124539
 30
0.0
  0
VERTEX
  5
1DE
100
AcDbEntity
  8
EBENE_1
 62
   250
100
AcDbVertex
100
AcDb2dVertex
 10
103.892194
 20
174.64946
 30
0.0
  0
VERTEX
  5
1DF
100
AcDbEntity
  8
EBENE_1
 62
   250
100
AcDbVertex
100
AcDb2dVertex
 10
103.436236
 20
175.124539
 30
0.0
  0
VERTEX
  5
1E0
100
AcDbEntity
  8
EBENE_1
 62
   250
100
AcDbVertex
100
AcDb2dVertex
 10
102.944104
 20
174.650494
 30
0.0
  0
VERTEX
  5
1E1
100
AcDbEntity
  8
EBENE_1
 62
   250
100
AcDbVertex
100
AcDb2dVertex
 10
102.472126
 20
175.123505
 30
0.0
  0
VERTEX
  5
1E2
100
AcDbEntity
  8
EBENE_1
 62
   250
100
AcDbVertex
100
AcDb2dVertex
 10
101.998253
 20
174.64946
 30
0.0
  0
VERTEX
  5
1E3
100
AcDbEntity
  8
EBENE_1
 62
   250
100
AcDbVertex
100
AcDb2dVertex
 10
101.508188
 20
175.124539
 30
0.0
  0
VERTEX
  5
1E4
100
AcDbEntity
  8
EBENE_1
 62
   250
100
AcDbVertex
100
AcDb2dVertex
 10
101.050163
 20
174.650494
 30
0.0
  0
VERTEX
  5
1E5
100
AcDbEntity
  8
EBENE_1
 62
   250
100
AcDbVertex
100
AcDb2dVertex
 10
100.560098
 20
175.123505
 30
0.0
  0
VERTEX
  5
1E6
100
AcDbEntity
  8
EBENE_1
 62
   250
100
AcDbVertex
100
AcDb2dVertex
 10
100.086225
 20
174.64946
 30
0.0
  0
VERTEX
  5
1E7
100
AcDbEntity
  8
EBENE_1
 62
   250
100
AcDbVertex
100
AcDb2dVertex
 10
99.61218
 20
175.124539
 30
0.0
  0
VERTEX
  5
1E8
100
AcDbEntity
  8
EBENE_1
 62
   250
100
AcDbVertex
100
AcDb2dVertex
 10
99.122115
 20
174.64946
 30
0.0
  0
VERTEX
  5
1E9
100
AcDbEntity
  8
EBENE_1
 62
   250
100
AcDbVertex
100
AcDb2dVertex
 10
98.648242
 20
175.123505
 30
0.0
  0
VERTEX
  5
1EA
100
AcDbEntity
  8
EBENE_1
 62
   250
100
AcDbVertex
100
AcDb2dVertex
 10
98.177125
 20
175.124539
 30
0.0
  0
VERTEX
  5
1EB
100
AcDbEntity
  8
EBENE_1
 62
   250
100
AcDbVertex
100
AcDb2dVertex
 10
98.176092
 20
193.315504
 30
0.0
  0
VERTEX
  5
1EC
100
AcDbEntity
  8
EBENE_1
 62
   250
100
AcDbVertex
100
AcDb2dVertex
 10
98.648242
 20
193.315504
 30
0.0
  0
VERTEX
  5
1ED
100
AcDbEntity
  8
EBENE_1
 62
   250
100
AcDbVertex
100
AcDb2dVertex
 10
99.122115
 20
193.789377
 30
0.0
  0
VERTEX
  5
1EE
100
AcDbEntity
  8
EBENE_1
 62
   250
100
AcDbVertex
100
AcDb2dVertex
 10
99.613213
 20
193.315504
 30
0.0
  0
VERTEX
  5
1EF
100
AcDbEntity
  8
EBENE_1
 62
   250
100
AcDbVertex
100
AcDb2dVertex
 10
100.086225
 20
193.789377
 30
0.0
  0
VERTEX
  5
1F0
100
AcDbEntity
  8
EBENE_1
 62
   250
100
AcDbVertex
100
AcDb2dVertex
 10
100.560098
 20
193.315504
 30
0.0
  0
VERTEX
  5
1F1
100
AcDbEntity
  8
EBENE_1
 62
   250
100
AcDbVertex
100
AcDb2dVertex
 10
101.050163
 20
193.790411
 30
0.0
  0
VERTEX
  5
1F2
100
AcDbEntity
  8
EBENE_1
 62
   250
100
AcDbVertex
100
AcDb2dVertex
 10
101.508188
 20
193.315504
 30
0.0
  0
VERTEX
  5
1F3
100
AcDbEntity
  8
EBENE_1
 62
   250
100
AcDbVertex
100
AcDb2dVertex
 10
101.998253
 20
193.790411
 30
0.0
  0
VERTEX
  5
1F4
100
AcDbEntity
  8
EBENE_1
 62
   250
100
AcDbVertex
100
AcDb2dVertex
 10
102.472126
 20
193.315504
 30
0.0
  0
VERTEX
  5
1F5
100
AcDbEntity
  8
EBENE_1
 62
   250
100
AcDbVertex
100
AcDb2dVertex
 10
102.944104
 20
193.790411
 30
0.0
  0
VERTEX
  5
1F6
100
AcDbEntity
  8
EBENE_1
 62
   250
100
AcDbVertex
100
AcDb2dVertex
 10
103.436236
 20
193.316366
 30
0.0
  0
VERTEX
  5
1F7
100
AcDbEntity
  8
EBENE_1
 62
   250
100
AcDbVertex
100
AcDb2dVertex
 10
103.892194
 20
193.789377
 30
0.0
  0
VERTEX
  5
1F8
100
AcDbEntity
  8
EBENE_1
 62
   250
100
AcDbVertex
100
AcDb2dVertex
 10
104.382259
 20
193.316366
 30
0.0
  0
VERTEX
  5
1F9
100
AcDbEntity
  8
EBENE_1
 62
   250
100
AcDbVertex
100
AcDb2dVertex
 10
104.856304
 20
193.790411
 30
0.0
  0
VERTEX
  5
1FA
100
AcDbEntity
  8
EBENE_1
 62
   250
100
AcDbVertex
100
AcDb2dVertex
 10
105.346197
 20
193.315504
 30
0.0
  0
VERTEX
  5
1FB
100
AcDbEntity
  8
EBENE_1
 62
   250
100
AcDbVertex
100
AcDb2dVertex
 10
105.820242
 20
193.790411
 30
0.0
  0
VERTEX
  5
1FC
100
AcDbEntity
  8
EBENE_1
 62
   250
100
AcDbVertex
100
AcDb2dVertex
 10
106.308412
 20
193.315504
 30
0.0
  0
VERTEX
  5
1FD
100
AcDbEntity
  8
EBENE_1
 62
   250
100
AcDbVertex
100
AcDb2dVertex
 10
108.204248
 20
193.315504
 30
0.0
  0
VERTEX
  5
1FE
100
AcDbEntity
  8
EBENE_1
 62
   250
100
AcDbVertex
100
AcDb2dVertex
 10
109.266371
 20
194.27548
 30
0.0
  0
VERTEX
  5
1FF
100
AcDbEntity
  8
EBENE_1
 62
   250
100
AcDbVertex
100
AcDb2dVertex
 10
109.168186
 20
193.790411
 30
0.0
  0
VERTEX
  5
200
100
AcDbEntity
  8
EBENE_1
 62
   250
100
AcDbVertex
100
AcDb2dVertex
 10
109.280151
 20
193.790411
 30
0.0
  0
SEQEND
  5
201
100
AcDbEntity
  8
EBENE_1
 62
   250
  0
POLYLINE
  5
1C8
100
AcDbEntity
  8
EBENE_1
 62
   250
100
AcDb2dPolyline
 66
     1
 10
0.0
 20
0.0
 30
0.0
  0
VERTEX
  5
1C9
100
AcDbEntity
  8
EBENE_1
 62
   250
100
AcDbVertex
100
AcDb2dVertex
 10
111.570106
 20
181.569451
 30
0.0
  0
VERTEX
  5
1CA
100
AcDbEntity
  8
EBENE_1
 62
   250
100
AcDbVertex
100
AcDb2dVertex
 10
111.576308
 20
174.603468
 30
0.0
  0
VERTEX
  5
1CB
100
AcDbEntity
  8
EBENE_1
 62
   250
100
AcDbVertex
100
AcDb2dVertex
 10
109.240188
 20
174.603468
 30
0.0
  0
VERTEX
  5
1CC
100
AcDbEntity
  8
EBENE_1
 62
   250
100
AcDbVertex
100
AcDb2dVertex
 10
109.223307
 20
193.819522
 30
0.0
  0
VERTEX
  5
1CD
100
AcDbEntity
  8
EBENE_1
 62
   250
100
AcDbVertex
100
AcDb2dVertex
 10
109.26017
 20
193.819522
 30
0.0
  0
SEQEND
  5
1CE
100
AcDbEntity
  8
EBENE_1
 62
   250
  0
SPLINE
  5
1C7
100
AcDbEntity
  8
EBENE_1
 62
   250
100
AcDbSpline
210
0.0
220
0.0
230
1.0
 70
     8
 71
     3
 72
    11
 73
     7
 74
     0
 42
0.00000001
 43
0.00000001
 40
0.0
 40
0.0
 40
0.0
 40
0.0
 40
1.0
 40
1.0
 40
1.0
 40
2.0
 40
2.0
 40
2.0
 40
2.0
 10
110.99098578559027
 20
194.94882405598958
 30
0.0
 10
110.41875542534721
 20
195.27404106987845
 30
0.0
 10
109.69115125868055
 20
195.0737087673611
 30
0.0
 10
109.36593424479166
 20
194.50130615234374
 30
0.0
 10
109.2401882595486
 20
194.28013102213541
 30
0.0
 10
109.18851182725693
 20
194.02467719184025
 30
0.0
 10
109.2184841579861
 20
193.77215169270832
 30
0.0
  0
LINE
  5
1C6
100
AcDbEntity
  8
EBENE_1
 62
   250
100
AcDbLine
 10
111.568384
 20
174.175415
 30
0.0
 11
111.568384
 21
181.547403
 31
0.0
  0
LINE
  5
1C5
100
AcDbEntity
  8
EBENE_1
 62
   250
100
AcDbLine
 10
113.478345
 20
181.525526
 30
0.0
 11
113.478345
 21
173.685522
 31
0.0
  0
POLYLINE
  5
1C0
100
AcDbEntity
  8
EBENE_1
 62
   250
100
AcDb2dPolyline
 66
     1
 10
0.0
 20
0.0
 30
0.0
  0
VERTEX
  5
1C1
100
AcDbEntity
  8
EBENE_1
 62
   250
100
AcDbVertex
100
AcDb2dVertex
 10
118.296311
 20
181.39444
 30
0.0
  0
VERTEX
  5
1C2
100
AcDbEntity
  8
EBENE_1
 62
   250
100
AcDbVertex
100
AcDb2dVertex
 10
118.296311
 20
173.006494
 30
0.0
  0
VERTEX
  5
1C3
100
AcDbEntity
  8
EBENE_1
 62
   250
100
AcDbVertex
100
AcDb2dVertex
 10
120.996232
 20
173.005461
 30
0.0
  0
SEQEND
  5
1C4
100
AcDbEntity
  8
EBENE_1
 62
   250
  0
LINE
  5
1BF
100
AcDbEntity
  8
EBENE_1
 62
   250
100
AcDbLine
 10
119.449384
 20
195.511408
 30
0.0
 11
119.449384
 21
181.511401
 31
0.0
  0
LINE
  5
1BE
100
AcDbEntity
  8
EBENE_1
 62
   250
100
AcDbLine
 10
118.449273
 20
181.511401
 30
0.0
 11
118.449273
 21
195.511408
 31
0.0
  0
LINE
  5
1BD
100
AcDbEntity
  8
EBENE_1
 62
   250
100
AcDbLine
 10
117.449162
 20
195.511408
 30
0.0
 11
117.449162
 21
181.511401
 31
0.0
  0
LINE
  5
1BC
100
AcDbEntity
  8
EBENE_1
 62
   250
100
AcDbLine
 10
116.449395
 20
195.511408
 30
0.0
 11
116.449395
 21
181.511401
 31
0.0
  0
POLYLINE
  5
1A7
100
AcDbEntity
  8
EBENE_1
 62
   250
100
AcDb2dPolyline
 66
     1
 10
0.0
 20
0.0
 30
0.0
 70
     1
  0
VERTEX
  5
1A8
100
AcDbEntity
  8
EBENE_1
 62
   250
100
AcDbVertex
100
AcDb2dVertex
 10
119.449384
 20
181.511401
 30
0.0
  0
VERTEX
  5
1A9
100
AcDbEntity
  8
EBENE_1
 62
   250
100
AcDbVertex
100
AcDb2dVertex
 10
120.949379
 20
181.511401
 30
0.0
  0
VERTEX
  5
1AA
100
AcDbEntity
  8
EBENE_1
 62
   250
100
AcDbVertex
100
AcDb2dVertex
 10
120.949379
 20
195.511408
 30
0.0
  0
VERTEX
  5
1AB
100
AcDbEntity
  8
EBENE_1
 62
   250
100
AcDbVertex
100
AcDb2dVertex
 10
119.449384
 20
195.511408
 30
0.0
  0
VERTEX
  5
1AC
100
AcDbEntity
  8
EBENE_1
 62
   250
100
AcDbVertex
100
AcDb2dVertex
 10
118.949156
 20
196.011464
 30
0.0
  0
VERTEX
  5
1AD
100
AcDbEntity
  8
EBENE_1
 62
   250
100
AcDbVertex
100
AcDb2dVertex
 10
118.449273
 20
195.511408
 30
0.0
  0
VERTEX
  5
1AE
100
AcDbEntity
  8
EBENE_1
 62
   250
100
AcDbVertex
100
AcDb2dVertex
 10
117.94939
 20
196.011464
 30
0.0
  0
VERTEX
  5
1AF
100
AcDbEntity
  8
EBENE_1
 62
   250
100
AcDbVertex
100
AcDb2dVertex
 10
117.449162
 20
195.511408
 30
0.0
  0
VERTEX
  5
1B0
100
AcDbEntity
  8
EBENE_1
 62
   250
100
AcDbVertex
100
AcDb2dVertex
 10
116.949278
 20
196.011464
 30
0.0
  0
VERTEX
  5
1B1
100
AcDbEntity
  8
EBENE_1
 62
   250
100
AcDbVertex
100
AcDb2dVertex
 10
116.449395
 20
195.511408
 30
0.0
  0
VERTEX
  5
1B2
100
AcDbEntity
  8
EBENE_1
 62
   250
100
AcDbVertex
100
AcDb2dVertex
 10
110.9493
 20
195.511408
 30
0.0
  0
VERTEX
  5
1B3
100
AcDbEntity
  8
EBENE_1
 62
   250
100
AcDbVertex
100
AcDb2dVertex
 10
110.9493
 20
181.511401
 30
0.0
  0
VERTEX
  5
1B4
100
AcDbEntity
  8
EBENE_1
 62
   250
100
AcDbVertex
100
AcDb2dVertex
 10
116.449395
 20
181.511401
 30
0.0
  0
VERTEX
  5
1B5
100
AcDbEntity
  8
EBENE_1
 62
   250
100
AcDbVertex
100
AcDb2dVertex
 10
116.949278
 20
181.011518
 30
0.0
  0
VERTEX
  5
1B6
100
AcDbEntity
  8
EBENE_1
 62
   250
100
AcDbVertex
100
AcDb2dVertex
 10
117.449162
 20
181.511401
 30
0.0
  0
VERTEX
  5
1B7
100
AcDbEntity
  8
EBENE_1
 62
   250
100
AcDbVertex
100
AcDb2dVertex
 10
117.94939
 20
181.011518
 30
0.0
  0
VERTEX
  5
1B8
100
AcDbEntity
  8
EBENE_1
 62
   250
100
AcDbVertex
100
AcDb2dVertex
 10
118.449273
 20
181.511401
 30
0.0
  0
VERTEX
  5
1B9
100
AcDbEntity
  8
EBENE_1
 62
   250
100
AcDbVertex
100
AcDb2dVertex
 10
118.949156
 20
181.011518
 30
0.0
  0
VERTEX
  5
1BA
100
AcDbEntity
  8
EBENE_1
 62
   250
100
AcDbVertex
100
AcDb2dVertex
 10
119.449384
 20
181.511401
 30
0.0
  0
SEQEND
  5
1BB
100
AcDbEntity
  8
EBENE_1
 62
   250
  0
POLYLINE
  5
1A1
100
AcDbEntity
  8
EBENE_1
 62
   250
100
AcDb2dPolyline
 66
     1
 10
0.0
 20
0.0
 30
0.0
 70
     1
  0
VERTEX
  5
1A2
100
AcDbEntity
  8
EBENE_1
 62
   250
100
AcDbVertex
100
AcDb2dVertex
 10
109.949189
 20
184.511391
 30
0.0
  0
VERTEX
  5
1A3
100
AcDbEntity
  8
EBENE_1
 62
   250
100
AcDbVertex
100
AcDb2dVertex
 10
110.9493
 20
184.511391
 30
0.0
  0
VERTEX
  5
1A4
100
AcDbEntity
  8
EBENE_1
 62
   250
100
AcDbVertex
100
AcDb2dVertex
 10
110.9493
 20
192.511419
 30
0.0
  0
VERTEX
  5
1A5
100
AcDbEntity
  8
EBENE_1
 62
   250
100
AcDbVertex
100
AcDb2dVertex
 10
109.949189
 20
192.511419
 30
0.0
  0
SEQEND
  5
1A6
100
AcDbEntity
  8
EBENE_1
 62
   250
  0
SPLINE
  5
1A0
100
AcDbEntity
  8
EBENE_1
 62
   250
100
AcDbSpline
210
0.0
220
0.0
230
1.0
 70
     8
 71
     3
 72
    11
 73
     7
 74
     0
 42
0.00000001
 43
0.00000001
 40
0.0
 40
0.0
 40
0.0
 40
0.0
 40
1.0
 40
1.0
 40
1.0
 40
2.0
 40
2.0
 40
2.0
 40
2.0
 10
109.27877332899304
 20
174.35369873046872
 30
0.0
 10
109.44482693142361
 20
173.71670057508678
 30
0.0
 10
110.09594997829861
 20
173.33498399522568
 30
0.0
 10
110.73294813368055
 20
173.50103759765622
 30
0.0
 10
111.16324055989583
 20
173.61317545572916
 30
0.0
 10
111.49500325520832
 20
173.95544569227428
 30
0.0
 10
111.59422200520832
 20
174.38883870442706
 30
0.0
  0
LINE
  5
19F
100
AcDbEntity
  8
EBENE_1
 62
   250
100
AcDbLine
 10
99.122115
 20
174.64946
 30
0.0
 11
99.122115
 21
193.789377
 31
0.0
  0
LINE
  5
19E
100
AcDbEntity
  8
EBENE_1
 62
   250
100
AcDbLine
 10
100.086225
 20
174.64946
 30
0.0
 11
100.086225
 21
193.789377
 31
0.0
  0
LINE
  5
19D
100
AcDbEntity
  8
EBENE_1
 62
   250
100
AcDbLine
 10
101.050163
 20
174.650494
 30
0.0
 11
101.050163
 21
193.790411
 31
0.0
  0
LINE
  5
19C
100
AcDbEntity
  8
EBENE_1
 62
   250
100
AcDbLine
 10
101.998253
 20
174.64946
 30
0.0
 11
101.998253
 21
193.790411
 31
0.0
  0
LINE
  5
19B
100
AcDbEntity
  8
EBENE_1
 62
   250
100
AcDbLine
 10
102.944104
 20
174.650494
 30
0.0
 11
102.944104
 21
193.790411
 31
0.0
  0
LINE
  5
19A
100
AcDbEntity
  8
EBENE_1
 62
   250
100
AcDbLine
 10
103.892194
 20
174.64946
 30
0.0
 11
103.892194
 21
193.789377
 31
0.0
  0
LINE
  5
199
100
AcDbEntity
  8
EBENE_1
 62
   250
100
AcDbLine
 10
104.856304
 20
174.650494
 30
0.0
 11
104.856304
 21
193.790411
 31
0.0
  0
LINE
  5
198
100
AcDbEntity
  8
EBENE_1
 62
   250
100
AcDbLine
 10
105.820242
 20
174.650494
 30
0.0
 11
105.820242
 21
193.790411
 31
0.0
  0
POLYLINE
  5
192
100
AcDbEntity
  8
EBENE_1
 62
   250
100
AcDb2dPolyline
 66
     1
 10
0.0
 20
0.0
 30
0.0
  0
VERTEX
  5
193
100
AcDbEntity
  8
EBENE_1
 62
   250
100
AcDbVertex
100
AcDb2dVertex
 10
118.297344
 20
175.708483
 30
0.0
  0
VERTEX
  5
194
100
AcDbEntity
  8
EBENE_1
 62
   250
100
AcDbVertex
100
AcDb2dVertex
 10
116.954102
 20
175.708483
 30
0.0
  0
VERTEX
  5
195
100
AcDbEntity
  8
EBENE_1
 62
   250
100
AcDbVertex
100
AcDb2dVertex
 10
116.954102
 20
173.006494
 30
0.0
  0
VERTEX
  5
196
100
AcDbEntity
  8
EBENE_1
 62
   250
100
AcDbVertex
100
AcDb2dVertex
 10
118.296311
 20
173.006494
 30
0.0
  0
SEQEND
  5
197
100
AcDbEntity
  8
EBENE_1
 62
   250
  0
POLYLINE
  5
16F
100
AcDbEntity
  8
EBENE_1
 62
   250
100
AcDb2dPolyline
 66
     1
 10
0.0
 20
0.0
 30
0.0
 70
     1
  0
VERTEX
  5
170
100
AcDbEntity
  8
EBENE_1
 62
   250
100
AcDbVertex
100
AcDb2dVertex
 10
222.983805
 20
155.011382
 30
0.0
  0
VERTEX
  5
171
100
AcDbEntity
  8
EBENE_1
 62
   250
100
AcDbVertex
100
AcDb2dVertex
 10
222.983805
 20
145.011304
 30
0.0
  0
VERTEX
  5
172
100
AcDbEntity
  8
EBENE_1
 62
   250
100
AcDbVertex
100
AcDb2dVertex
 10
203.690237
 20
145.011304
 30
0.0
  0
VERTEX
  5
173
100
AcDbEntity
  8
EBENE_1
 62
   250
100
AcDbVertex
100
AcDb2dVertex
 10
203.690237
 20
140.011437
 30
0.0
  0
VERTEX
  5
174
100
AcDbEntity
  8
EBENE_1
 62
   250
100
AcDbVertex
100
AcDb2dVertex
 10
222.983805
 20
140.011437
 30
0.0
  0
VERTEX
  5
175
100
AcDbEntity
  8
EBENE_1
 62
   250
100
AcDbVertex
100
AcDb2dVertex
 10
222.983805
 20
130.011358
 30
0.0
  0
VERTEX
  5
176
100
AcDbEntity
  8
EBENE_1
 62
   250
100
AcDbVertex
100
AcDb2dVertex
 10
203.690237
 20
130.011358
 30
0.0
  0
VERTEX
  5
177
100
AcDbEntity
  8
EBENE_1
 62
   250
100
AcDbVertex
100
AcDb2dVertex
 10
203.690237
 20
125.011491
 30
0.0
  0
VERTEX
  5
178
100
AcDbEntity
  8
EBENE_1
 62
   250
100
AcDbVertex
100
AcDb2dVertex
 10
222.983805
 20
125.011491
 30
0.0
  0
VERTEX
  5
179
100
AcDbEntity
  8
EBENE_1
 62
   250
100
AcDbVertex
100
AcDb2dVertex
 10
222.983805
 20
115.011412
 30
0.0
  0
VERTEX
  5
17A
100
AcDbEntity
  8
EBENE_1
 62
   250
100
AcDbVertex
100
AcDb2dVertex
 10
203.690237
 20
115.011412
 30
0.0
  0
VERTEX
  5
17B
100
AcDbEntity
  8
EBENE_1
 62
   250
100
AcDbVertex
100
AcDb2dVertex
 10
203.690237
 20
110.011545
 30
0.0
  0
VERTEX
  5
17C
100
AcDbEntity
  8
EBENE_1
 62
   250
100
AcDbVertex
100
AcDb2dVertex
 10
222.983805
 20
110.011545
 30
0.0
  0
VERTEX
  5
17D
100
AcDbEntity
  8
EBENE_1
 62
   250
100
AcDbVertex
100
AcDb2dVertex
 10
222.983805
 20
100.011466
 30
0.0
  0
VERTEX
  5
17E
100
AcDbEntity
  8
EBENE_1
 62
   250
100
AcDbVertex
100
AcDb2dVertex
 10
203.690237
 20
100.011466
 30
0.0
  0
VERTEX
  5
17F
100
AcDbEntity
  8
EBENE_1
 62
   250
100
AcDbVertex
100
AcDb2dVertex
 10
203.690237
 20
95.011599
 30
0.0
  0
VERTEX
  5
180
100
AcDbEntity
  8
EBENE_1
 62
   250
100
AcDbVertex
100
AcDb2dVertex
 10
222.983805
 20
95.011599
 30
0.0
  0
VERTEX
  5
181
100
AcDbEntity
  8
EBENE_1
 62
   250
100
AcDbVertex
100
AcDb2dVertex
 10
222.983805
 20
82.511415
 30
0.0
  0
VERTEX
  5
182
100
AcDbEntity
  8
EBENE_1
 62
   250
100
AcDbVertex
100
AcDb2dVertex
 10
192.271468
 20
82.511415
 30
0.0
  0
VERTEX
  5
183
100
AcDbEntity
  8
EBENE_1
 62
   250
100
AcDbVertex
100
AcDb2dVertex
 10
192.271468
 20
202.511498
 30
0.0
  0
VERTEX
  5
184
100
AcDbEntity
  8
EBENE_1
 62
   250
100
AcDbVertex
100
AcDb2dVertex
 10
222.983805
 20
202.511498
 30
0.0
  0
VERTEX
  5
185
100
AcDbEntity
  8
EBENE_1
 62
   250
100
AcDbVertex
100
AcDb2dVertex
 10
222.983805
 20
190.011485
 30
0.0
  0
VERTEX
  5
186
100
AcDbEntity
  8
EBENE_1
 62
   250
100
AcDbVertex
100
AcDb2dVertex
 10
203.690237
 20
190.011485
 30
0.0
  0
VERTEX
  5
187
100
AcDbEntity
  8
EBENE_1
 62
   250
100
AcDbVertex
100
AcDb2dVertex
 10
203.690237
 20
185.011446
 30
0.0
  0
VERTEX
  5
188
100
AcDbEntity
  8
EBENE_1
 62
   250
100
AcDbVertex
100
AcDb2dVertex
 10
222.983805
 20
185.011446
 30
0.0
  0
VERTEX
  5
189
100
AcDbEntity
  8
EBENE_1
 62
   250
100
AcDbVertex
100
AcDb2dVertex
 10
222.983805
 20
175.01154
 30
0.0
  0
VERTEX
  5
18A
100
AcDbEntity
  8
EBENE_1
 62
   250
100
AcDbVertex
100
AcDb2dVertex
 10
203.690237
 20
175.01154
 30
0.0
  0
VERTEX
  5
18B
100
AcDbEntity
  8
EBENE_1
 62
   250
100
AcDbVertex
100
AcDb2dVertex
 10
203.690237
 20
170.0115
 30
0.0
  0
VERTEX
  5
18C
100
AcDbEntity
  8
EBENE_1
 62
   250
100
AcDbVertex
100
AcDb2dVertex
 10
222.983805
 20
170.0115
 30
0.0
  0
VERTEX
  5
18D
100
AcDbEntity
  8
EBENE_1
 62
   250
100
AcDbVertex
100
AcDb2dVertex
 10
222.983805
 20
160.011594
 30
0.0
  0
VERTEX
  5
18E
100
AcDbEntity
  8
EBENE_1
 62
   250
100
AcDbVertex
100
AcDb2dVertex
 10
203.690237
 20
160.011594
 30
0.0
  0
VERTEX
  5
18F
100
AcDbEntity
  8
EBENE_1
 62
   250
100
AcDbVertex
100
AcDb2dVertex
 10
203.690237
 20
155.011382
 30
0.0
  0
VERTEX
  5
190
100
AcDbEntity
  8
EBENE_1
 62
   250
100
AcDbVertex
100
AcDb2dVertex
 10
222.983805
 20
155.011382
 30
0.0
  0
SEQEND
  5
191
100
AcDbEntity
  8
EBENE_1
 62
   250
  0
POLYLINE
  5
169
100
AcDbEntity
  8
EBENE_1
 62
   250
100
AcDb2dPolyline
 66
     1
 10
0.0
 20
0.0
 30
0.0
 70
     1
  0
VERTEX
  5
16A
100
AcDbEntity
  8
EBENE_1
 62
   250
100
AcDbVertex
100
AcDb2dVertex
 10
120.949379
 20
82.511415
 30
0.0
  0
VERTEX
  5
16B
100
AcDbEntity
  8
EBENE_1
 62
   250
100
AcDbVertex
100
AcDb2dVertex
 10
125.449363
 20
82.511415
 30
0.0
  0
VERTEX
  5
16C
100
AcDbEntity
  8
EBENE_1
 62
   250
100
AcDbVertex
100
AcDb2dVertex
 10
125.449363
 20
202.511498
 30
0.0
  0
VERTEX
  5
16D
100
AcDbEntity
  8
EBENE_1
 62
   250
100
AcDbVertex
100
AcDb2dVertex
 10
120.949379
 20
202.511498
 30
0.0
  0
SEQEND
  5
16E
100
AcDbEntity
  8
EBENE_1
 62
   250
  0
POLYLINE
  5
163
100
AcDbEntity
  8
EBENE_1
 62
   250
100
AcDb2dPolyline
 66
     1
 10
0.0
 20
0.0
 30
0.0
 70
     1
  0
VERTEX
  5
164
100
AcDbEntity
  8
EBENE_1
 62
   250
100
AcDbVertex
100
AcDb2dVertex
 10
120.761966
 20
82.511415
 30
0.0
  0
VERTEX
  5
165
100
AcDbEntity
  8
EBENE_1
 62
   250
100
AcDbVertex
100
AcDb2dVertex
 10
192.314876
 20
82.511415
 30
0.0
  0
VERTEX
  5
166
100
AcDbEntity
  8
EBENE_1
 62
   250
100
AcDbVertex
100
AcDb2dVertex
 10
192.314876
 20
202.511498
 30
0.0
  0
VERTEX
  5
167
100
AcDbEntity
  8
EBENE_1
 62
   250
100
AcDbVertex
100
AcDb2dVertex
 10
120.761966
 20
202.511498
 30
0.0
  0
SEQEND
  5
168
100
AcDbEntity
  8
EBENE_1
 62
   250
  0
POLYLINE
  5
15C
100
AcDbEntity
  8
EBENE_1
 62
   250
100
AcDb2dPolyline
 66
     1
 10
0.0
 20
0.0
 30
0.0
 70
     1
  0
VERTEX
  5
15D
100
AcDbEntity
  8
EBENE_1
 62
   250
100
AcDbVertex
100
AcDb2dVertex
 10
120.949379
 20
131.511353
 30
0.0
  0
VERTEX
  5
15E
100
AcDbEntity
  8
EBENE_1
 62
   250
100
AcDbVertex
100
AcDb2dVertex
 10
90.949143
 20
131.511353
 30
0.0
  0
VERTEX
  5
15F
100
AcDbEntity
  8
EBENE_1
 62
   250
100
AcDbVertex
100
AcDb2dVertex
 10
90.949143
 20
137.511331
 30
0.0
  0
VERTEX
  5
160
100
AcDbEntity
  8
EBENE_1
 62
   250
100
AcDbVertex
100
AcDb2dVertex
 10
120.949379
 20
137.511331
 30
0.0
  0
VERTEX
  5
161
100
AcDbEntity
  8
EBENE_1
 62
   250
100
AcDbVertex
100
AcDb2dVertex
 10
120.949379
 20
131.511353
 30
0.0
  0
SEQEND
  5
162
100
AcDbEntity
  8
EBENE_1
 62
   250
  0
POLYLINE
  5
155
100
AcDbEntity
  8
EBENE_1
 62
   250
100
AcDb2dPolyline
 66
     1
 10
0.0
 20
0.0
 30
0.0
 70
     1
  0
VERTEX
  5
156
100
AcDbEntity
  8
EBENE_1
 62
   250
100
AcDbVertex
100
AcDb2dVertex
 10
120.949379
 20
148.511176
 30
0.0
  0
VERTEX
  5
157
100
AcDbEntity
  8
EBENE_1
 62
   250
100
AcDbVertex
100
AcDb2dVertex
 10
90.949143
 20
148.511176
 30
0.0
  0
VERTEX
  5
158
100
AcDbEntity
  8
EBENE_1
 62
   250
100
AcDbVertex
100
AcDb2dVertex
 10
90.949143
 20
156.511377
 30
0.0
  0
VERTEX
  5
159
100
AcDbEntity
  8
EBENE_1
 62
   250
100
AcDbVertex
100
AcDb2dVertex
 10
120.949379
 20
156.511377
 30
0.0
  0
VERTEX
  5
15A
100
AcDbEntity
  8
EBENE_1
 62
   250
100
AcDbVertex
100
AcDb2dVertex
 10
120.949379
 20
148.511176
 30
0.0
  0
SEQEND
  5
15B
100
AcDbEntity
  8
EBENE_1
 62
   250
  0
POLYLINE
  5
14F
100
AcDbEntity
  8
EBENE_1
 62
   250
100
AcDb2dPolyline
 66
     1
 10
0.0
 20
0.0
 30
0.0
 70
     1
  0
VERTEX
  5
150
100
AcDbEntity
  8
EBENE_1
 62
   250
100
AcDbVertex
100
AcDb2dVertex
 10
-26.771493
 20
131.511353
 30
0.0
  0
VERTEX
  5
151
100
AcDbEntity
  8
EBENE_1
 62
   250
100
AcDbVertex
100
AcDb2dVertex
 10
90.888337
 20
131.511353
 30
0.0
  0
VERTEX
  5
152
100
AcDbEntity
  8
EBENE_1
 62
   250
100
AcDbVertex
100
AcDb2dVertex
 10
90.888337
 20
137.511331
 30
0.0
  0
VERTEX
  5
153
100
AcDbEntity
  8
EBENE_1
 62
   250
100
AcDbVertex
100
AcDb2dVertex
 10
-26.771493
 20
137.511331
 30
0.0
  0
SEQEND
  5
154
100
AcDbEntity
  8
EBENE_1
 62
   250
  0
POLYLINE
  5
13E
100
AcDbEntity
  8
EBENE_1
 62
   250
100
AcDb2dPolyline
 66
     1
 10
0.0
 20
0.0
 30
0.0
 70
     1
  0
VERTEX
  5
13F
100
AcDbEntity
  8
EBENE_1
 62
   250
100
AcDbVertex
100
AcDb2dVertex
 10
53.949162
 20
148.511176
 30
0.0
  0
VERTEX
  5
140
100
AcDbEntity
  8
EBENE_1
 62
   250
100
AcDbVertex
100
AcDb2dVertex
 10
53.949162
 20
147.51141
 30
0.0
  0
VERTEX
  5
141
100
AcDbEntity
  8
EBENE_1
 62
   250
100
AcDbVertex
100
AcDb2dVertex
 10
53.721096
 20
146.265318
 30
0.0
  0
VERTEX
  5
142
100
AcDbEntity
  8
EBENE_1
 62
   250
100
AcDbVertex
100
AcDb2dVertex
 10
53.140253
 20
144.632343
 30
0.0
  0
VERTEX
  5
143
100
AcDbEntity
  8
EBENE_1
 62
   250
100
AcDbVertex
100
AcDb2dVertex
 10
52.611087
 20
143.616385
 30
0.0
  0
VERTEX
  5
144
100
AcDbEntity
  8
EBENE_1
 62
   250
100
AcDbVertex
100
AcDb2dVertex
 10
51.87108
 20
142.531179
 30
0.0
  0
VERTEX
  5
145
100
AcDbEntity
  8
EBENE_1
 62
   250
100
AcDbVertex
100
AcDb2dVertex
 10
50.994992
 20
141.54416
 30
0.0
  0
VERTEX
  5
146
100
AcDbEntity
  8
EBENE_1
 62
   250
100
AcDbVertex
100
AcDb2dVertex
 10
50.449289
 20
141.011203
 30
0.0
  0
VERTEX
  5
147
100
AcDbEntity
  8
EBENE_1
 62
   250
100
AcDbVertex
100
AcDb2dVertex
 10
49.943205
 20
140.608127
 30
0.0
  0
VERTEX
  5
148
100
AcDbEntity
  8
EBENE_1
 62
   250
100
AcDbVertex
100
AcDb2dVertex
 10
49.347203
 20
140.256383
 30
0.0
  0
VERTEX
  5
149
100
AcDbEntity
  8
EBENE_1
 62
   250
100
AcDbVertex
100
AcDb2dVertex
 10
48.463192
 20
140.068281
 30
0.0
  0
VERTEX
  5
14A
100
AcDbEntity
  8
EBENE_1
 62
   250
100
AcDbVertex
100
AcDb2dVertex
 10
47.4493
 20
140.011092
 30
0.0
  0
VERTEX
  5
14B
100
AcDbEntity
  8
EBENE_1
 62
   250
100
AcDbVertex
100
AcDb2dVertex
 10
47.4493
 20
156.511377
 30
0.0
  0
VERTEX
  5
14C
100
AcDbEntity
  8
EBENE_1
 62
   250
100
AcDbVertex
100
AcDb2dVertex
 10
53.949162
 20
156.511377
 30
0.0
  0
VERTEX
  5
14D
100
AcDbEntity
  8
EBENE_1
 62
   250
100
AcDbVertex
100
AcDb2dVertex
 10
53.949162
 20
148.511176
 30
0.0
  0
SEQEND
  5
14E
100
AcDbEntity
  8
EBENE_1
 62
   250
  0
POLYLINE
  5
138
100
AcDbEntity
  8
EBENE_1
 62
   250
100
AcDb2dPolyline
 66
     1
 10
0.0
 20
0.0
 30
0.0
 70
     1
  0
VERTEX
  5
139
100
AcDbEntity
  8
EBENE_1
 62
   250
100
AcDbVertex
100
AcDb2dVertex
 10
-26.962006
 20
140.011092
 30
0.0
  0
VERTEX
  5
13A
100
AcDbEntity
  8
EBENE_1
 62
   250
100
AcDbVertex
100
AcDb2dVertex
 10
47.574874
 20
140.011092
 30
0.0
  0
VERTEX
  5
13B
100
AcDbEntity
  8
EBENE_1
 62
   250
100
AcDbVertex
100
AcDb2dVertex
 10
47.574874
 20
156.511377
 30
0.0
  0
VERTEX
  5
13C
100
AcDbEntity
  8
EBENE_1
 62
   250
100
AcDbVertex
100
AcDb2dVertex
 10
-26.962006
 20
156.511377
 30
0.0
  0
SEQEND
  5
13D
100
AcDbEntity
  8
EBENE_1
 62
   250
  0
POLYLINE
  5
131
100
AcDbEntity
  8
EBENE_1
 62
   250
100
AcDb2dPolyline
 66
     1
 10
0.0
 20
0.0
 30
0.0
 70
     1
  0
VERTEX
  5
132
100
AcDbEntity
  8
EBENE_1
 62
   250
100
AcDbVertex
100
AcDb2dVertex
 10
91.025624
 20
148.511176
 30
0.0
  0
VERTEX
  5
133
100
AcDbEntity
  8
EBENE_1
 62
   250
100
AcDbVertex
100
AcDb2dVertex
 10
53.896107
 20
148.511176
 30
0.0
  0
VERTEX
  5
134
100
AcDbEntity
  8
EBENE_1
 62
   250
100
AcDbVertex
100
AcDb2dVertex
 10
53.896107
 20
156.511377
 30
0.0
  0
VERTEX
  5
135
100
AcDbEntity
  8
EBENE_1
 62
   250
100
AcDbVertex
100
AcDb2dVertex
 10
91.025624
 20
156.511377
 30
0.0
  0
VERTEX
  5
136
100
AcDbEntity
  8
EBENE_1
 62
   250
100
AcDbVertex
100
AcDb2dVertex
 10
91.025624
 20
148.511176
 30
0.0
  0
SEQEND
  5
137
100
AcDbEntity
  8
EBENE_1
 62
   250
  0
POLYLINE
  5
12A
100
AcDbEntity
  8
EBENE_1
 62
   250
100
AcDb2dPolyline
 66
     1
 10
0.0
 20
0.0
 30
0.0
 70
     1
  0
VERTEX
  5
12B
100
AcDbEntity
  8
EBENE_1
 62
   250
100
AcDbVertex
100
AcDb2dVertex
 10
120.949379
 20
107.511095
 30
0.0
  0
VERTEX
  5
12C
100
AcDbEntity
  8
EBENE_1
 62
   250
100
AcDbVertex
100
AcDb2dVertex
 10
90.949143
 20
107.511095
 30
0.0
  0
VERTEX
  5
12D
100
AcDbEntity
  8
EBENE_1
 62
   250
100
AcDbVertex
100
AcDb2dVertex
 10
90.949143
 20
101.511117
 30
0.0
  0
VERTEX
  5
12E
100
AcDbEntity
  8
EBENE_1
 62
   250
100
AcDbVertex
100
AcDb2dVertex
 10
120.949379
 20
101.511117
 30
0.0
  0
VERTEX
  5
12F
100
AcDbEntity
  8
EBENE_1
 62
   250
100
AcDbVertex
100
AcDb2dVertex
 10
120.949379
 20
107.511095
 30
0.0
  0
SEQEND
  5
130
100
AcDbEntity
  8
EBENE_1
 62
   250
  0
POLYLINE
  5
123
100
AcDbEntity
  8
EBENE_1
 62
   250
100
AcDb2dPolyline
 66
     1
 10
0.0
 20
0.0
 30
0.0
 70
     1
  0
VERTEX
  5
124
100
AcDbEntity
  8
EBENE_1
 62
   250
100
AcDbVertex
100
AcDb2dVertex
 10
120.949379
 20
90.511271
 30
0.0
  0
VERTEX
  5
125
100
AcDbEntity
  8
EBENE_1
 62
   250
100
AcDbVertex
100
AcDb2dVertex
 10
90.949143
 20
90.511271
 30
0.0
  0
VERTEX
  5
126
100
AcDbEntity
  8
EBENE_1
 62
   250
100
AcDbVertex
100
AcDb2dVertex
 10
90.949143
 20
82.51107
 30
0.0
  0
VERTEX
  5
127
100
AcDbEntity
  8
EBENE_1
 62
   250
100
AcDbVertex
100
AcDb2dVertex
 10
120.949379
 20
82.51107
 30
0.0
  0
VERTEX
  5
128
100
AcDbEntity
  8
EBENE_1
 62
   250
100
AcDbVertex
100
AcDb2dVertex
 10
120.949379
 20
90.511271
 30
0.0
  0
SEQEND
  5
129
100
AcDbEntity
  8
EBENE_1
 62
   250
  0
POLYLINE
  5
11D
100
AcDbEntity
  8
EBENE_1
 62
   250
100
AcDb2dPolyline
 66
     1
 10
0.0
 20
0.0
 30
0.0
 70
     1
  0
VERTEX
  5
11E
100
AcDbEntity
  8
EBENE_1
 62
   250
100
AcDbVertex
100
AcDb2dVertex
 10
-26.651259
 20
101.511117
 30
0.0
  0
VERTEX
  5
11F
100
AcDbEntity
  8
EBENE_1
 62
   250
100
AcDbVertex
100
AcDb2dVertex
 10
90.800315
 20
101.511117
 30
0.0
  0
VERTEX
  5
120
100
AcDbEntity
  8
EBENE_1
 62
   250
100
AcDbVertex
100
AcDb2dVertex
 10
90.800315
 20
107.511095
 30
0.0
  0
VERTEX
  5
121
100
AcDbEntity
  8
EBENE_1
 62
   250
100
AcDbVertex
100
AcDb2dVertex
 10
-26.651259
 20
107.511095
 30
0.0
  0
SEQEND
  5
122
100
AcDbEntity
  8
EBENE_1
 62
   250
  0
POLYLINE
  5
10C
100
AcDbEntity
  8
EBENE_1
 62
   250
100
AcDb2dPolyline
 66
     1
 10
0.0
 20
0.0
 30
0.0
 70
     1
  0
VERTEX
  5
10D
100
AcDbEntity
  8
EBENE_1
 62
   250
100
AcDbVertex
100
AcDb2dVertex
 10
53.949162
 20
90.511271
 30
0.0
  0
VERTEX
  5
10E
100
AcDbEntity
  8
EBENE_1
 62
   250
100
AcDbVertex
100
AcDb2dVertex
 10
53.949162
 20
91.511382
 30
0.0
  0
VERTEX
  5
10F
100
AcDbEntity
  8
EBENE_1
 62
   250
100
AcDbVertex
100
AcDb2dVertex
 10
53.721096
 20
92.757129
 30
0.0
  0
VERTEX
  5
110
100
AcDbEntity
  8
EBENE_1
 62
   250
100
AcDbVertex
100
AcDb2dVertex
 10
53.140253
 20
94.390104
 30
0.0
  0
VERTEX
  5
111
100
AcDbEntity
  8
EBENE_1
 62
   250
100
AcDbVertex
100
AcDb2dVertex
 10
52.611087
 20
95.406407
 30
0.0
  0
VERTEX
  5
112
100
AcDbEntity
  8
EBENE_1
 62
   250
100
AcDbVertex
100
AcDb2dVertex
 10
51.87108
 20
96.491268
 30
0.0
  0
VERTEX
  5
113
100
AcDbEntity
  8
EBENE_1
 62
   250
100
AcDbVertex
100
AcDb2dVertex
 10
50.994992
 20
97.478288
 30
0.0
  0
VERTEX
  5
114
100
AcDbEntity
  8
EBENE_1
 62
   250
100
AcDbVertex
100
AcDb2dVertex
 10
50.449289
 20
98.011244
 30
0.0
  0
VERTEX
  5
115
100
AcDbEntity
  8
EBENE_1
 62
   250
100
AcDbVertex
100
AcDb2dVertex
 10
49.943205
 20
98.41432
 30
0.0
  0
VERTEX
  5
116
100
AcDbEntity
  8
EBENE_1
 62
   250
100
AcDbVertex
100
AcDb2dVertex
 10
49.347203
 20
98.766064
 30
0.0
  0
VERTEX
  5
117
100
AcDbEntity
  8
EBENE_1
 62
   250
100
AcDbVertex
100
AcDb2dVertex
 10
48.463192
 20
98.954167
 30
0.0
  0
VERTEX
  5
118
100
AcDbEntity
  8
EBENE_1
 62
   250
100
AcDbVertex
100
AcDb2dVertex
 10
47.4493
 20
99.011355
 30
0.0
  0
VERTEX
  5
119
100
AcDbEntity
  8
EBENE_1
 62
   250
100
AcDbVertex
100
AcDb2dVertex
 10
47.4493
 20
82.51107
 30
0.0
  0
VERTEX
  5
11A
100
AcDbEntity
  8
EBENE_1
 62
   250
100
AcDbVertex
100
AcDb2dVertex
 10
53.949162
 20
82.51107
 30
0.0
  0
VERTEX
  5
11B
100
AcDbEntity
  8
EBENE_1
 62
   250
100
AcDbVertex
100
AcDb2dVertex
 10
53.949162
 20
90.511271
 30
0.0
  0
SEQEND
  5
11C
100
AcDbEntity
  8
EBENE_1
 62
   250
  0
POLYLINE
  5
106
100
AcDbEntity
  8
EBENE_1
 62
   250
100
AcDb2dPolyline
 66
     1
 10
0.0
 20
0.0
 30
0.0
 70
     1
  0
VERTEX
  5
107
100
AcDbEntity
  8
EBENE_1
 62
   250
100
AcDbVertex
100
AcDb2dVertex
 10
-27.101188
 20
82.51107
 30
0.0
  0
VERTEX
  5
108
100
AcDbEntity
  8
EBENE_1
 62
   250
100
AcDbVertex
100
AcDb2dVertex
 10
47.399346
 20
82.51107
 30
0.0
  0
VERTEX
  5
109
100
AcDbEntity
  8
EBENE_1
 62
   250
100
AcDbVertex
100
AcDb2dVertex
 10
47.399346
 20
99.011355
 30
0.0
  0
VERTEX
  5
10A
100
AcDbEntity
  8
EBENE_1
 62
   250
100
AcDbVertex
100
AcDb2dVertex
 10
-27.101188
 20
99.011355
 30
0.0
  0
SEQEND
  5
10B
100
AcDbEntity
  8
EBENE_1
 62
   250
  0
POLYLINE
  5
FF
100
AcDbEntity
  8
EBENE_1
 62
   250
100
AcDb2dPolyline
 66
     1
 10
0.0
 20
0.0
 30
0.0
 70
     1
  0
VERTEX
  5
100
100
AcDbEntity
  8
EBENE_1
 62
   250
100
AcDbVertex
100
AcDb2dVertex
 10
90.938463
 20
90.511271
 30
0.0
  0
VERTEX
  5
101
100
AcDbEntity
  8
EBENE_1
 62
   250
100
AcDbVertex
100
AcDb2dVertex
 10
53.896107
 20
90.511271
 30
0.0
  0
VERTEX
  5
102
100
AcDbEntity
  8
EBENE_1
 62
   250
100
AcDbVertex
100
AcDb2dVertex
 10
53.896107
 20
82.51107
 30
0.0
  0
VERTEX
  5
103
100
AcDbEntity
  8
EBENE_1
 62
   250
100
AcDbVertex
100
AcDb2dVertex
 10
90.938463
 20
82.51107
 30
0.0
  0
VERTEX
  5
104
100
AcDbEntity
  8
EBENE_1
 62
   250
100
AcDbVertex
100
AcDb2dVertex
 10
90.938463
 20
90.511271
 30
0.0
  0
SEQEND
  5
105
100
AcDbEntity
  8
EBENE_1
 62
   250
  0
POLYLINE
  5
F9
100
AcDbEntity
  8
EBENE_1
 62
   250
100
AcDb2dPolyline
 66
     1
 10
0.0
 20
0.0
 30
0.0
 70
     1
  0
VERTEX
  5
FA
100
AcDbEntity
  8
EBENE_1
 62
   250
100
AcDbVertex
100
AcDb2dVertex
 10
-68.050971
 20
112.511306
 30
0.0
  0
VERTEX
  5
FB
100
AcDbEntity
  8
EBENE_1
 62
   250
100
AcDbVertex
100
AcDb2dVertex
 10
-41.050724
 20
112.511306
 30
0.0
  0
VERTEX
  5
FC
100
AcDbEntity
  8
EBENE_1
 62
   250
100
AcDbVertex
100
AcDb2dVertex
 10
-41.050724
 20
126.511141
 30
0.0
  0
VERTEX
  5
FD
100
AcDbEntity
  8
EBENE_1
 62
   250
100
AcDbVertex
100
AcDb2dVertex
 10
-68.050971
 20
126.511141
 30
0.0
  0
SEQEND
  5
FE
100
AcDbEntity
  8
EBENE_1
 62
   250
  0
POLYLINE
  5
F3
100
AcDbEntity
  8
EBENE_1
 62
   250
100
AcDb2dPolyline
 66
     1
 10
0.0
 20
0.0
 30
0.0
 70
     1
  0
VERTEX
  5
F4
100
AcDbEntity
  8
EBENE_1
 62
   250
100
AcDbVertex
100
AcDb2dVertex
 10
-41.050724
 20
79.511081
 30
0.0
  0
VERTEX
  5
F5
100
AcDbEntity
  8
EBENE_1
 62
   250
100
AcDbVertex
100
AcDb2dVertex
 10
-38.050735
 20
79.511081
 30
0.0
  0
VERTEX
  5
F6
100
AcDbEntity
  8
EBENE_1
 62
   250
100
AcDbVertex
100
AcDb2dVertex
 10
-38.050735
 20
159.511366
 30
0.0
  0
VERTEX
  5
F7
100
AcDbEntity
  8
EBENE_1
 62
   250
100
AcDbVertex
100
AcDb2dVertex
 10
-41.050724
 20
159.511366
 30
0.0
  0
SEQEND
  5
F8
100
AcDbEntity
  8
EBENE_1
 62
   250
  0
POLYLINE
  5
ED
100
AcDbEntity
  8
EBENE_1
 62
   250
100
AcDb2dPolyline
 66
     1
 10
0.0
 20
0.0
 30
0.0
 70
     1
  0
VERTEX
  5
EE
100
AcDbEntity
  8
EBENE_1
 62
   250
100
AcDbVertex
100
AcDb2dVertex
 10
-38.050735
 20
75.858247
 30
0.0
  0
VERTEX
  5
EF
100
AcDbEntity
  8
EBENE_1
 62
   250
100
AcDbVertex
100
AcDb2dVertex
 10
-27.05089
 20
75.858247
 30
0.0
  0
VERTEX
  5
F0
100
AcDbEntity
  8
EBENE_1
 62
   250
100
AcDbVertex
100
AcDb2dVertex
 10
-27.05089
 20
162.895483
 30
0.0
  0
VERTEX
  5
F1
100
AcDbEntity
  8
EBENE_1
 62
   250
100
AcDbVertex
100
AcDb2dVertex
 10
-38.050735
 20
162.895483
 30
0.0
  0
SEQEND
  5
F2
100
AcDbEntity
  8
EBENE_1
 62
   250
  0
POLYLINE
  5
E7
100
AcDbEntity
  8
EBENE_1
 62
   250
100
AcDb2dPolyline
 66
     1
 10
0.0
 20
0.0
 30
0.0
 70
     1
  0
VERTEX
  5
E8
100
AcDbEntity
  8
EBENE_1
 62
   250
100
AcDbVertex
100
AcDb2dVertex
 10
-26.902751
 20
82.51107
 30
0.0
  0
VERTEX
  5
E9
100
AcDbEntity
  8
EBENE_1
 62
   250
100
AcDbVertex
100
AcDb2dVertex
 10
90.833215
 20
82.51107
 30
0.0
  0
VERTEX
  5
EA
100
AcDbEntity
  8
EBENE_1
 62
   250
100
AcDbVertex
100
AcDb2dVertex
 10
90.833215
 20
156.511377
 30
0.0
  0
VERTEX
  5
EB
100
AcDbEntity
  8
EBENE_1
 62
   250
100
AcDbVertex
100
AcDb2dVertex
 10
-26.902751
 20
156.511377
 30
0.0
  0
SEQEND
  5
EC
100
AcDbEntity
  8
EBENE_1
 62
   250
  0
POLYLINE
  5
E1
100
AcDbEntity
  8
EBENE_1
 62
   250
100
AcDb2dPolyline
 66
     1
 10
0.0
 20
0.0
 30
0.0
 70
     1
  0
VERTEX
  5
E2
100
AcDbEntity
  8
EBENE_1
 62
   250
100
AcDbVertex
100
AcDb2dVertex
 10
90.949143
 20
82.51107
 30
0.0
  0
VERTEX
  5
E3
100
AcDbEntity
  8
EBENE_1
 62
   250
100
AcDbVertex
100
AcDb2dVertex
 10
120.949379
 20
82.51107
 30
0.0
  0
VERTEX
  5
E4
100
AcDbEntity
  8
EBENE_1
 62
   250
100
AcDbVertex
100
AcDb2dVertex
 10
120.949379
 20
156.511377
 30
0.0
  0
VERTEX
  5
E5
100
AcDbEntity
  8
EBENE_1
 62
   250
100
AcDbVertex
100
AcDb2dVertex
 10
90.949143
 20
156.511377
 30
0.0
  0
SEQEND
  5
E6
100
AcDbEntity
  8
EBENE_1
 62
   250
  0
MTEXT
  5
E0
100
AcDbEntity
  8
EBENE_1
 62
   250
100
AcDbMText
 10
-58.995538
 20
175.456264
 30
0.0
 40
3.500007
 41
0.0
 71
     1
 72
     2
  1
\fMyriad Roman|b0|i0; 3.0 
  7
STD
210
0.0
220
0.0
230
1.0
 11
1.000001
 21
0.0
 31
0.0
 73
     1
 44
1.0
  0
POLYLINE
  5
DB
100
AcDbEntity
  8
EBENE_1
 62
   250
100
AcDb2dPolyline
 66
     1
 10
0.0
 20
0.0
 30
0.0
 70
     1
  0
VERTEX
  5
DC
100
AcDbEntity
  8
EBENE_1
 62
   250
100
AcDbVertex
100
AcDb2dVertex
 10
-38.02972
 20
173.511201
 30
0.0
  0
VERTEX
  5
DD
100
AcDbEntity
  8
EBENE_1
 62
   250
100
AcDbVertex
100
AcDb2dVertex
 10
-34.028931
 20
174.508211
 30
0.0
  0
VERTEX
  5
DE
100
AcDbEntity
  8
EBENE_1
 62
   250
100
AcDbVertex
100
AcDb2dVertex
 10
-34.028931
 20
172.51419
 30
0.0
  0
SEQEND
  5
DF
100
AcDbEntity
  8
EBENE_1
 62
   250
  0
HATCH
  5
DA
100
AcDbEntity
  8
EBENE_1
 62
   250
100
AcDbHatch
 10
0.0
 20
0.0
 30
0.0
210
0.0
220
0.0
230
1.0
  2
SOLID
 70
     1
 71
     0
 91
        1
 92
        3
 72
     0
 73
     1
 93
        3
 10
-38.029720052083327
 20
173.51120062934027
 10
-34.0289306640625
 20
174.50821126302083
 10
-34.0289306640625
 20
172.51418999565971
 97
        0
 75
     0
 76
     1
 98
        1
 10
0.0
 20
0.0
  0
LINE
  5
D9
100
AcDbEntity
  8
EBENE_1
 62
   250
100
AcDbLine
 10
-29.932195
 20
173.511201
 30
0.0
 11
-37.932052
 21
173.511201
 31
0.0
  0
POLYLINE
  5
D4
100
AcDbEntity
  8
EBENE_1
 62
   250
100
AcDb2dPolyline
 66
     1
 10
0.0
 20
0.0
 30
0.0
 70
     1
  0
VERTEX
  5
D5
100
AcDbEntity
  8
EBENE_1
 62
   250
100
AcDbVertex
100
AcDb2dVertex
 10
-41.153388
 20
173.511201
 30
0.0
  0
VERTEX
  5
D6
100
AcDbEntity
  8
EBENE_1
 62
   250
100
AcDbVertex
100
AcDb2dVertex
 10
-45.154178
 20
172.51419
 30
0.0
  0
VERTEX
  5
D7
100
AcDbEntity
  8
EBENE_1
 62
   250
100
AcDbVertex
100
AcDb2dVertex
 10
-45.154178
 20
174.508211
 30
0.0
  0
SEQEND
  5
D8
100
AcDbEntity
  8
EBENE_1
 62
   250
  0
HATCH
  5
D3
100
AcDbEntity
  8
EBENE_1
 62
   250
100
AcDbHatch
 10
0.0
 20
0.0
 30
0.0
210
0.0
220
0.0
230
1.0
  2
SOLID
 70
     1
 71
     0
 91
        1
 92
        3
 72
     0
 73
     1
 93
        3
 10
-41.153388129340271
 20
173.51120062934027
 10
-45.154177517361106
 20
172.51418999565971
 10
-45.154177517361106
 20
174.50821126302083
 97
        0
 75
     0
 76
     1
 98
        1
 10
0.0
 20
0.0
  0
LINE
  5
D2
100
AcDbEntity
  8
EBENE_1
 62
   250
100
AcDbLine
 10
-49.835546
 20
173.511201
 30
0.0
 11
-41.835689
 21
173.511201
 31
0.0
  0
LINE
  5
D1
100
AcDbEntity
  8
EBENE_1
 62
   250
100
AcDbLine
 10
-41.050724
 20
159.511366
 30
0.0
 11
-41.050724
 21
173.511201
 31
0.0
  0
MTEXT
  5
D0
100
AcDbEntity
  8
EBENE_1
 62
   250
100
AcDbMText
 10
-57.872437
 20
186.761172
 30
0.0
 40
3.500007
 41
0.0
 71
     1
 72
     2
  1
\fMyriad Roman|b0|i0; 30.0 
  7
STD
210
0.0
220
0.0
230
1.0
 11
1.000001
 21
0.0
 31
0.0
 73
     1
 44
1.0
  0
POLYLINE
  5
CB
100
AcDbEntity
  8
EBENE_1
 62
   250
100
AcDb2dPolyline
 66
     1
 10
0.0
 20
0.0
 30
0.0
 70
     1
  0
VERTEX
  5
CC
100
AcDbEntity
  8
EBENE_1
 62
   250
100
AcDbVertex
100
AcDb2dVertex
 10
-38.050735
 20
185.011274
 30
0.0
  0
VERTEX
  5
CD
100
AcDbEntity
  8
EBENE_1
 62
   250
100
AcDbVertex
100
AcDb2dVertex
 10
-42.051869
 20
184.014263
 30
0.0
  0
VERTEX
  5
CE
100
AcDbEntity
  8
EBENE_1
 62
   250
100
AcDbVertex
100
AcDb2dVertex
 10
-42.051869
 20
186.008285
 30
0.0
  0
SEQEND
  5
CF
100
AcDbEntity
  8
EBENE_1
 62
   250
  0
HATCH
  5
CA
100
AcDbEntity
  8
EBENE_1
 62
   250
100
AcDbHatch
 10
0.0
 20
0.0
 30
0.0
210
0.0
220
0.0
230
1.0
  2
SOLID
 70
     1
 71
     0
 91
        1
 92
        3
 72
     0
 73
     1
 93
        3
 10
-38.05073513454861
 20
185.01127387152775
 10
-42.051869032118049
 20
184.01426323784722
 10
-42.051869032118049
 20
186.00828450520831
 97
        0
 75
     0
 76
     1
 98
        1
 10
0.0
 20
0.0
  0
LINE
  5
C9
100
AcDbEntity
  8
EBENE_1
 62
   250
100
AcDbLine
 10
-42.050836
 20
185.011274
 30
0.0
 11
-38.050735
 21
185.011274
 31
0.0
  0
POLYLINE
  5
C4
100
AcDbEntity
  8
EBENE_1
 62
   250
100
AcDb2dPolyline
 66
     1
 10
0.0
 20
0.0
 30
0.0
 70
     1
  0
VERTEX
  5
C5
100
AcDbEntity
  8
EBENE_1
 62
   250
100
AcDbVertex
100
AcDb2dVertex
 10
-68.050971
 20
185.011274
 30
0.0
  0
VERTEX
  5
C6
100
AcDbEntity
  8
EBENE_1
 62
   250
100
AcDbVertex
100
AcDb2dVertex
 10
-64.049837
 20
186.008285
 30
0.0
  0
VERTEX
  5
C7
100
AcDbEntity
  8
EBENE_1
 62
   250
100
AcDbVertex
100
AcDb2dVertex
 10
-64.049837
 20
184.014263
 30
0.0
  0
SEQEND
  5
C8
100
AcDbEntity
  8
EBENE_1
 62
   250
  0
HATCH
  5
C3
100
AcDbEntity
  8
EBENE_1
 62
   250
100
AcDbHatch
 10
0.0
 20
0.0
 30
0.0
210
0.0
220
0.0
230
1.0
  2
SOLID
 70
     1
 71
     0
 91
        1
 92
        3
 72
     0
 73
     1
 93
        3
 10
-68.050971137152771
 20
185.01127387152775
 10
-64.049837239583326
 20
186.00828450520831
 10
-64.049837239583326
 20
184.01426323784722
 97
        0
 75
     0
 76
     1
 98
        1
 10
0.0
 20
0.0
  0
LINE
  5
C2
100
AcDbEntity
  8
EBENE_1
 62
   250
100
AcDbLine
 10
-63.05076
 20
185.011274
 30
0.0
 11
-68.050971
 21
185.011274
 31
0.0
  0
MTEXT
  5
C1
100
AcDbEntity
  8
EBENE_1
 62
   250
100
AcDbMText
 10
-58.909066
 20
72.452215
 30
0.0
 40
3.500007
 41
0.0
 71
     1
 72
     2
  1
\fMyriad Roman|b0|i0; 11.0 
  7
STD
210
0.0
220
0.0
230
1.0
 11
1.000001
 21
0.0
 31
0.0
 73
     1
 44
1.0
  0
POLYLINE
  5
BC
100
AcDbEntity
  8
EBENE_1
 62
   250
100
AcDb2dPolyline
 66
     1
 10
0.0
 20
0.0
 30
0.0
 70
     1
  0
VERTEX
  5
BD
100
AcDbEntity
  8
EBENE_1
 62
   250
100
AcDbVertex
100
AcDb2dVertex
 10
-27.065015
 20
70.393636
 30
0.0
  0
VERTEX
  5
BE
100
AcDbEntity
  8
EBENE_1
 62
   250
100
AcDbVertex
100
AcDb2dVertex
 10
-23.063881
 20
71.390647
 30
0.0
  0
VERTEX
  5
BF
100
AcDbEntity
  8
EBENE_1
 62
   250
100
AcDbVertex
100
AcDb2dVertex
 10
-23.063881
 20
69.396625
 30
0.0
  0
SEQEND
  5
C0
100
AcDbEntity
  8
EBENE_1
 62
   250
  0
HATCH
  5
BB
100
AcDbEntity
  8
EBENE_1
 62
   250
100
AcDbHatch
 10
0.0
 20
0.0
 30
0.0
210
0.0
220
0.0
230
1.0
  2
SOLID
 70
     1
 71
     0
 91
        1
 92
        3
 72
     0
 73
     1
 93
        3
 10
-27.065014648437497
 20
70.393636067708329
 10
-23.063880750868055
 20
71.390646701388889
 10
-23.063880750868055
 20
69.396625434027769
 97
        0
 75
     0
 76
     1
 98
        1
 10
0.0
 20
0.0
  0
LINE
  5
BA
100
AcDbEntity
  8
EBENE_1
 62
   250
100
AcDbLine
 10
-18.436084
 20
70.379856
 30
0.0
 11
-26.729462
 21
70.379856
 31
0.0
  0
POLYLINE
  5
B5
100
AcDbEntity
  8
EBENE_1
 62
   250
100
AcDb2dPolyline
 66
     1
 10
0.0
 20
0.0
 30
0.0
 70
     1
  0
VERTEX
  5
B6
100
AcDbEntity
  8
EBENE_1
 62
   250
100
AcDbVertex
100
AcDb2dVertex
 10
-38.060037
 20
70.574159
 30
0.0
  0
VERTEX
  5
B7
100
AcDbEntity
  8
EBENE_1
 62
   250
100
AcDbVertex
100
AcDb2dVertex
 10
-42.061171
 20
69.577148
 30
0.0
  0
VERTEX
  5
B8
100
AcDbEntity
  8
EBENE_1
 62
   250
100
AcDbVertex
100
AcDb2dVertex
 10
-42.061171
 20
71.57117
 30
0.0
  0
SEQEND
  5
B9
100
AcDbEntity
  8
EBENE_1
 62
   250
  0
HATCH
  5
B4
100
AcDbEntity
  8
EBENE_1
 62
   250
100
AcDbHatch
 10
0.0
 20
0.0
 30
0.0
210
0.0
220
0.0
230
1.0
  2
SOLID
 70
     1
 71
     0
 91
        1
 92
        3
 72
     0
 73
     1
 93
        3
 10
-38.060036892361104
 20
70.574159071180546
 10
-42.06117078993055
 20
69.5771484375
 10
-42.06117078993055
 20
71.571169704861106
 97
        0
 75
     0
 76
     1
 98
        1
 10
0.0
 20
0.0
  0
LINE
  5
B3
100
AcDbEntity
  8
EBENE_1
 62
   250
100
AcDbLine
 10
-49.294493
 20
70.520071
 30
0.0
 11
-38.294648
 21
70.520071
 31
0.0
  0
LINE
  5
B2
100
AcDbEntity
  8
EBENE_1
 62
   250
100
AcDbLine
 10
-27.014372
 20
70.300618
 30
0.0
 11
-27.014372
 21
77.440579
 31
0.0
  0
POLYLINE
  5
AD
100
AcDbEntity
  8
EBENE_1
 62
   250
100
AcDb2dPolyline
 66
     1
 10
0.0
 20
0.0
 30
0.0
 70
     1
  0
VERTEX
  5
AE
100
AcDbEntity
  8
EBENE_1
 62
   250
100
AcDbVertex
100
AcDb2dVertex
 10
222.983805
 20
227.261408
 30
0.0
  0
VERTEX
  5
AF
100
AcDbEntity
  8
EBENE_1
 62
   250
100
AcDbVertex
100
AcDb2dVertex
 10
218.893788
 20
226.264398
 30
0.0
  0
VERTEX
  5
B0
100
AcDbEntity
  8
EBENE_1
 62
   250
100
AcDbVertex
100
AcDb2dVertex
 10
218.893788
 20
228.258419
 30
0.0
  0
SEQEND
  5
B1
100
AcDbEntity
  8
EBENE_1
 62
   250
  0
HATCH
  5
AC
100
AcDbEntity
  8
EBENE_1
 62
   250
100
AcDbHatch
 10
0.0
 20
0.0
 30
0.0
210
0.0
220
0.0
230
1.0
  2
SOLID
 70
     1
 71
     0
 91
        1
 92
        3
 72
     0
 73
     1
 93
        3
 10
222.98380533854166
 20
227.26140814887151
 10
218.89378797743055
 20
226.26439751519095
 10
218.89378797743055
 20
228.25841878255207
 97
        0
 75
     0
 76
     1
 98
        1
 10
0.0
 20
0.0
  0
LINE
  5
AB
100
AcDbEntity
  8
EBENE_1
 62
   250
100
AcDbLine
 10
116.830078
 20
227.261408
 30
0.0
 11
222.983805
 21
227.261408
 31
0.0
  0
POLYLINE
  5
A6
100
AcDbEntity
  8
EBENE_1
 62
   250
100
AcDb2dPolyline
 66
     1
 10
0.0
 20
0.0
 30
0.0
 70
     1
  0
VERTEX
  5
A7
100
AcDbEntity
  8
EBENE_1
 62
   250
100
AcDbVertex
100
AcDb2dVertex
 10
-38.012839
 20
227.31119
 30
0.0
  0
VERTEX
  5
A8
100
AcDbEntity
  8
EBENE_1
 62
   250
100
AcDbVertex
100
AcDb2dVertex
 10
-34.011705
 20
228.3082
 30
0.0
  0
VERTEX
  5
A9
100
AcDbEntity
  8
EBENE_1
 62
   250
100
AcDbVertex
100
AcDb2dVertex
 10
-34.011705
 20
226.314179
 30
0.0
  0
SEQEND
  5
AA
100
AcDbEntity
  8
EBENE_1
 62
   250
  0
HATCH
  5
A5
100
AcDbEntity
  8
EBENE_1
 62
   250
100
AcDbHatch
 10
0.0
 20
0.0
 30
0.0
210
0.0
220
0.0
230
1.0
  2
SOLID
 70
     1
 71
     0
 91
        1
 92
        3
 72
     0
 73
     1
 93
        3
 10
-38.012839084201389
 20
227.31118977864583
 10
-34.011705186631943
 20
228.30820041232636
 10
-34.011705186631943
 20
226.31417914496527
 97
        0
 75
     0
 76
     1
 98
        1
 10
0.0
 20
0.0
  0
LINE
  5
A4
100
AcDbEntity
  8
EBENE_1
 62
   250
100
AcDbLine
 10
102.851603
 20
227.261408
 30
0.0
 11
-36.34748
 21
227.261408
 31
0.0
  0
LINE
  5
A3
100
AcDbEntity
  8
EBENE_1
 62
   250
100
AcDbLine
 10
222.983805
 20
202.511498
 30
0.0
 11
222.983805
 21
227.261408
 31
0.0
  0
LINE
  5
A2
100
AcDbEntity
  8
EBENE_1
 62
   250
100
AcDbLine
 10
-68.050971
 20
126.511141
 30
0.0
 11
-68.050971
 21
185.011274
 31
0.0
  0
POLYLINE
  5
9D
100
AcDbEntity
  8
EBENE_1
 62
   250
100
AcDb2dPolyline
 66
     1
 10
0.0
 20
0.0
 30
0.0
 70
     1
  0
VERTEX
  5
9E
100
AcDbEntity
  8
EBENE_1
 62
   250
100
AcDbVertex
100
AcDb2dVertex
 10
120.949379
 20
213.761457
 30
0.0
  0
VERTEX
  5
9F
100
AcDbEntity
  8
EBENE_1
 62
   250
100
AcDbVertex
100
AcDb2dVertex
 10
116.948245
 20
212.764446
 30
0.0
  0
VERTEX
  5
A0
100
AcDbEntity
  8
EBENE_1
 62
   250
100
AcDbVertex
100
AcDb2dVertex
 10
116.948245
 20
214.758468
 30
0.0
  0
SEQEND
  5
A1
100
AcDbEntity
  8
EBENE_1
 62
   250
  0
HATCH
  5
9C
100
AcDbEntity
  8
EBENE_1
 62
   250
100
AcDbHatch
 10
0.0
 20
0.0
 30
0.0
210
0.0
220
0.0
230
1.0
  2
SOLID
 70
     1
 71
     0
 91
        1
 92
        3
 72
     0
 73
     1
 93
        3
 10
120.94937879774305
 20
213.7614569769965
 10
116.94824490017361
 20
212.76444634331594
 10
116.94824490017361
 20
214.75846761067706
 97
        0
 75
     0
 76
     1
 98
        1
 10
0.0
 20
0.0
  0
LINE
  5
9B
100
AcDbEntity
  8
EBENE_1
 62
   250
100
AcDbLine
 10
59.344009
 20
213.761457
 30
0.0
 11
120.949379
 21
213.761457
 31
0.0
  0
POLYLINE
  5
96
100
AcDbEntity
  8
EBENE_1
 62
   250
100
AcDb2dPolyline
 66
     1
 10
0.0
 20
0.0
 30
0.0
 70
     1
  0
VERTEX
  5
97
100
AcDbEntity
  8
EBENE_1
 62
   250
100
AcDbVertex
100
AcDb2dVertex
 10
-38.071406
 20
213.886514
 30
0.0
  0
VERTEX
  5
98
100
AcDbEntity
  8
EBENE_1
 62
   250
100
AcDbVertex
100
AcDb2dVertex
 10
-34.070616
 20
214.883525
 30
0.0
  0
VERTEX
  5
99
100
AcDbEntity
  8
EBENE_1
 62
   250
100
AcDbVertex
100
AcDb2dVertex
 10
-34.070616
 20
212.889503
 30
0.0
  0
SEQEND
  5
9A
100
AcDbEntity
  8
EBENE_1
 62
   250
  0
HATCH
  5
95
100
AcDbEntity
  8
EBENE_1
 62
   250
100
AcDbHatch
 10
0.0
 20
0.0
 30
0.0
210
0.0
220
0.0
230
1.0
  2
SOLID
 70
     1
 71
     0
 91
        1
 92
        3
 72
     0
 73
     1
 93
        3
 10
-38.071405707465274
 20
213.88651394314235
 10
-34.07061631944444
 20
214.88352457682291
 10
-34.07061631944444
 20
212.88950330946179
 97
        0
 75
     0
 76
     1
 98
        1
 10
0.0
 20
0.0
  0
LINE
  5
94
100
AcDbEntity
  8
EBENE_1
 62
   250
100
AcDbLine
 10
49.206127
 20
213.854475
 30
0.0
 11
-34.354492
 21
213.854475
 31
0.0
  0
LINE
  5
93
100
AcDbEntity
  8
EBENE_1
 62
   250
100
AcDbLine
 10
120.949379
 20
202.511498
 30
0.0
 11
120.949379
 21
213.761457
 31
0.0
  0
LINE
  5
92
100
AcDbEntity
  8
EBENE_1
 62
   250
100
AcDbLine
 10
-38.046946
 20
161.614597
 30
0.0
 11
-38.046946
 21
227.355115
 31
0.0
  0
MTEXT
  5
91
100
AcDbEntity
  8
EBENE_1
 62
   250
100
AcDbMText
 10
163.817391
 20
215.832266
 30
0.0
 40
3.500007
 41
0.0
 71
     1
 72
     2
  1
\fMyriad Roman|b0|i0; 102.5 
  7
STD
210
0.0
220
0.0
230
1.0
 11
1.000001
 21
0.0
 31
0.0
 73
     1
 44
1.0
  0
POLYLINE
  5
8C
100
AcDbEntity
  8
EBENE_1
 62
   250
100
AcDb2dPolyline
 66
     1
 10
0.0
 20
0.0
 30
0.0
 70
     1
  0
VERTEX
  5
8D
100
AcDbEntity
  8
EBENE_1
 62
   250
100
AcDbVertex
100
AcDb2dVertex
 10
120.949379
 20
213.761457
 30
0.0
  0
VERTEX
  5
8E
100
AcDbEntity
  8
EBENE_1
 62
   250
100
AcDbVertex
100
AcDb2dVertex
 10
124.950513
 20
214.758468
 30
0.0
  0
VERTEX
  5
8F
100
AcDbEntity
  8
EBENE_1
 62
   250
100
AcDbVertex
100
AcDb2dVertex
 10
124.950513
 20
212.764446
 30
0.0
  0
SEQEND
  5
90
100
AcDbEntity
  8
EBENE_1
 62
   250
  0
HATCH
  5
8B
100
AcDbEntity
  8
EBENE_1
 62
   250
100
AcDbHatch
 10
0.0
 20
0.0
 30
0.0
210
0.0
220
0.0
230
1.0
  2
SOLID
 70
     1
 71
     0
 91
        1
 92
        3
 72
     0
 73
     1
 93
        3
 10
120.94937879774305
 20
213.7614569769965
 10
124.95051269531248
 20
214.75846761067706
 10
124.95051269531248
 20
212.76444634331594
 97
        0
 75
     0
 76
     1
 98
        1
 10
0.0
 20
0.0
  0
LINE
  5
8A
100
AcDbEntity
  8
EBENE_1
 62
   250
100
AcDbLine
 10
162.488618
 20
213.761457
 30
0.0
 11
120.949379
 21
213.761457
 31
0.0
  0
POLYLINE
  5
85
100
AcDbEntity
  8
EBENE_1
 62
   250
100
AcDb2dPolyline
 66
     1
 10
0.0
 20
0.0
 30
0.0
 70
     1
  0
VERTEX
  5
86
100
AcDbEntity
  8
EBENE_1
 62
   250
100
AcDbVertex
100
AcDb2dVertex
 10
222.983805
 20
213.761457
 30
0.0
  0
VERTEX
  5
87
100
AcDbEntity
  8
EBENE_1
 62
   250
100
AcDbVertex
100
AcDb2dVertex
 10
218.893788
 20
212.764446
 30
0.0
  0
VERTEX
  5
88
100
AcDbEntity
  8
EBENE_1
 62
   250
100
AcDbVertex
100
AcDb2dVertex
 10
218.893788
 20
214.758468
 30
0.0
  0
SEQEND
  5
89
100
AcDbEntity
  8
EBENE_1
 62
   250
  0
HATCH
  5
84
100
AcDbEntity
  8
EBENE_1
 62
   250
100
AcDbHatch
 10
0.0
 20
0.0
 30
0.0
210
0.0
220
0.0
230
1.0
  2
SOLID
 70
     1
 71
     0
 91
        1
 92
        3
 72
     0
 73
     1
 93
        3
 10
222.98380533854166
 20
213.7614569769965
 10
218.89378797743055
 20
212.76444634331594
 10
218.89378797743055
 20
214.75846761067706
 97
        0
 75
     0
 76
     1
 98
        1
 10
0.0
 20
0.0
  0
LINE
  5
83
100
AcDbEntity
  8
EBENE_1
 62
   250
100
AcDbLine
 10
179.068829
 20
213.761457
 30
0.0
 11
222.983805
 21
213.761457
 31
0.0
  0
LINE
  5
82
100
AcDbEntity
  8
EBENE_1
 62
   250
100
AcDbLine
 10
120.949379
 20
202.511498
 30
0.0
 11
120.949379
 21
213.761457
 31
0.0
  0
LINE
  5
81
100
AcDbEntity
  8
EBENE_1
 62
   250
100
AcDbLine
 10
222.983805
 20
202.511498
 30
0.0
 11
222.983805
 21
213.761457
 31
0.0
  0
MTEXT
  5
80
100
AcDbEntity
  8
EBENE_1
 62
   250
100
AcDbMText
 10
231.392939
 20
145.011438
 30
0.0
 40
3.500007
 41
0.0
 71
     1
 72
     2
  1
\W1.02;\fMyriad Roman|b0|i0; 120.0 
  7
STD
210
0.0
220
0.0
230
1.0
 11
1.000001
 21
0.0
 31
0.0
 73
     1
 44
1.0
  0
POLYLINE
  5
7B
100
AcDbEntity
  8
EBENE_1
 62
   250
100
AcDb2dPolyline
 66
     1
 10
0.0
 20
0.0
 30
0.0
 70
     1
  0
VERTEX
  5
7C
100
AcDbEntity
  8
EBENE_1
 62
   250
100
AcDbVertex
100
AcDb2dVertex
 10
238.537033
 20
202.511498
 30
0.0
  0
VERTEX
  5
7D
100
AcDbEntity
  8
EBENE_1
 62
   250
100
AcDbVertex
100
AcDb2dVertex
 10
239.556437
 20
198.510536
 30
0.0
  0
VERTEX
  5
7E
100
AcDbEntity
  8
EBENE_1
 62
   250
100
AcDbVertex
100
AcDb2dVertex
 10
237.517974
 20
198.510536
 30
0.0
  0
SEQEND
  5
7F
100
AcDbEntity
  8
EBENE_1
 62
   250
  0
HATCH
  5
7A
100
AcDbEntity
  8
EBENE_1
 62
   250
100
AcDbHatch
 10
0.0
 20
0.0
 30
0.0
210
0.0
220
0.0
230
1.0
  2
SOLID
 70
     1
 71
     0
 91
        1
 92
        3
 72
     0
 73
     1
 93
        3
 10
238.53703342013887
 20
202.51149766710068
 10
239.55643717447916
 20
198.51053602430554
 10
237.51797417534721
 20
198.51053602430554
 97
        0
 75
     0
 76
     1
 98
        1
 10
0.0
 20
0.0
  0
LINE
  5
79
100
AcDbEntity
  8
EBENE_1
 62
   250
100
AcDbLine
 10
238.537033
 20
146.761412
 30
0.0
 11
238.537033
 21
202.511498
 31
0.0
  0
POLYLINE
  5
74
100
AcDbEntity
  8
EBENE_1
 62
   250
100
AcDb2dPolyline
 66
     1
 10
0.0
 20
0.0
 30
0.0
 70
     1
  0
VERTEX
  5
75
100
AcDbEntity
  8
EBENE_1
 62
   250
100
AcDbVertex
100
AcDb2dVertex
 10
238.537033
 20
82.511415
 30
0.0
  0
VERTEX
  5
76
100
AcDbEntity
  8
EBENE_1
 62
   250
100
AcDbVertex
100
AcDb2dVertex
 10
237.517974
 20
86.512549
 30
0.0
  0
VERTEX
  5
77
100
AcDbEntity
  8
EBENE_1
 62
   250
100
AcDbVertex
100
AcDb2dVertex
 10
239.556437
 20
86.512549
 30
0.0
  0
SEQEND
  5
78
100
AcDbEntity
  8
EBENE_1
 62
   250
  0
HATCH
  5
73
100
AcDbEntity
  8
EBENE_1
 62
   250
100
AcDbHatch
 10
0.0
 20
0.0
 30
0.0
210
0.0
220
0.0
230
1.0
  2
SOLID
 70
     1
 71
     0
 91
        1
 92
        3
 72
     0
 73
     1
 93
        3
 10
238.53703342013887
 20
82.511414930555546
 10
237.51797417534721
 20
86.512548828124991
 10
239.55643717447916
 20
86.512548828124991
 97
        0
 75
     0
 76
     1
 98
        1
 10
0.0
 20
0.0
  0
LINE
  5
72
100
AcDbEntity
  8
EBENE_1
 62
   250
100
AcDbLine
 10
238.537033
 20
139.761323
 30
0.0
 11
238.537033
 21
82.511415
 31
0.0
  0
LINE
  5
71
100
AcDbEntity
  8
EBENE_1
 62
   250
100
AcDbLine
 10
218.894477
 20
202.511498
 30
0.0
 11
238.537033
 21
202.511498
 31
0.0
  0
LINE
  5
70
100
AcDbEntity
  8
EBENE_1
 62
   250
100
AcDbLine
 10
218.894477
 20
82.511415
 30
0.0
 11
238.537033
 21
82.511415
 31
0.0
  0
LINE
  5
6F
100
AcDbEntity
  8
EBENE_1
 62
   250
100
AcDbLine
 10
-47.128562
 20
185.118416
 30
0.0
 11
-38.010428
 21
185.118416
 31
0.0
  0
LINE
  5
6E
100
AcDbEntity
  8
EBENE_1
 62
   250
100
AcDbLine
 10
-38.006982
 20
70.579671
 30
0.0
 11
-38.006982
 21
77.719976
 31
0.0
  0
MTEXT
  5
6D
100
AcDbEntity
  8
EBENE_1
 62
   250
100
AcDbMText
 10
-106.859972
 20
122.39586
 30
0.0
 40
3.674769
 41
0.0
 71
     1
 72
     2
  1
\fMyriad Roman|b0|i0;86.0 
  7
STD
210
0.0
220
0.0
230
1.0
 11
1.000001
 21
0.0
 31
0.0
 73
     1
 44
1.0
  0
LINE
  5
6C
100
AcDbEntity
  8
EBENE_1
 62
   250
100
AcDbLine
 10
-102.143292
 20
116.481779
 30
0.0
 11
-102.143292
 21
78.718709
 31
0.0
  0
POLYLINE
  5
67
100
AcDbEntity
  8
EBENE_1
 62
   250
100
AcDb2dPolyline
 66
     1
 10
0.0
 20
0.0
 30
0.0
  0
VERTEX
  5
68
100
AcDbEntity
  8
EBENE_1
 62
   250
100
AcDbVertex
100
AcDb2dVertex
 10
-102.246644
 20
162.893416
 30
0.0
  0
VERTEX
  5
69
100
AcDbEntity
  8
EBENE_1
 62
   250
100
AcDbVertex
100
AcDb2dVertex
 10
-101.249634
 20
158.892282
 30
0.0
  0
VERTEX
  5
6A
100
AcDbEntity
  8
EBENE_1
 62
   250
100
AcDbVertex
100
AcDb2dVertex
 10
-103.243655
 20
158.892282
 30
0.0
  0
SEQEND
  5
6B
100
AcDbEntity
  8
EBENE_1
 62
   250
  0
HATCH
  5
66
100
AcDbEntity
  8
EBENE_1
 62
   250
100
AcDbHatch
 10
0.0
 20
0.0
 30
0.0
210
0.0
220
0.0
230
1.0
  2
SOLID
 70
     1
 71
     0
 91
        1
 92
        3
 72
     0
 73
     0
 93
        3
 10
-102.24664442274305
 20
162.89341634114581
 10
-101.24963378906249
 20
158.89228244357636
 10
-103.24365505642361
 20
158.89228244357636
 97
        0
 75
     0
 76
     1
 98
        1
 10
0.0
 20
0.0
  0
LINE
  5
65
100
AcDbEntity
  8
EBENE_1
 62
   250
100
AcDbLine
 10
-102.234587
 20
124.087172
 30
0.0
 11
-102.234587
 21
160.887854
 31
0.0
  0
LINE
  5
64
100
AcDbEntity
  8
EBENE_1
 62
   250
100
AcDbLine
 10
-37.790286
 20
75.872371
 30
0.0
 11
-102.142603
 21
75.872371
 31
0.0
  0
LINE
  5
63
100
AcDbEntity
  8
EBENE_1
 62
   250
100
AcDbLine
 10
-41.055547
 20
159.485011
 30
0.0
 11
-89.864971
 21
159.485011
 31
0.0
  0
POLYLINE
  5
5E
100
AcDbEntity
  8
EBENE_1
 62
   250
100
AcDb2dPolyline
 66
     1
 10
0.0
 20
0.0
 30
0.0
 70
     1
  0
VERTEX
  5
5F
100
AcDbEntity
  8
EBENE_1
 62
   250
100
AcDbVertex
100
AcDb2dVertex
 10
-102.142603
 20
75.838954
 30
0.0
  0
VERTEX
  5
60
100
AcDbEntity
  8
EBENE_1
 62
   250
100
AcDbVertex
100
AcDb2dVertex
 10
-103.139613
 20
79.840088
 30
0.0
  0
VERTEX
  5
61
100
AcDbEntity
  8
EBENE_1
 62
   250
100
AcDbVertex
100
AcDb2dVertex
 10
-101.145592
 20
79.840088
 30
0.0
  0
SEQEND
  5
62
100
AcDbEntity
  8
EBENE_1
 62
   250
  0
HATCH
  5
5D
100
AcDbEntity
  8
EBENE_1
 62
   250
100
AcDbHatch
 10
0.0
 20
0.0
 30
0.0
210
0.0
220
0.0
230
1.0
  2
SOLID
 70
     1
 71
     0
 91
        1
 92
        3
 72
     0
 73
     1
 93
        3
 10
-102.14260253906249
 20
75.838953993055554
 10
-103.13961317274304
 20
79.840087890624986
 10
-101.14559190538193
 20
79.840087890624986
 97
        0
 75
     0
 76
     1
 98
        1
 10
0.0
 20
0.0
  0
LINE
  5
5C
100
AcDbEntity
  8
EBENE_1
 62
   250
100
AcDbLine
 10
-76.891775
 20
134.482058
 30
0.0
 11
-76.891775
 21
126.481858
 31
0.0
  0
LINE
  5
5B
100
AcDbEntity
  8
EBENE_1
 62
   250
100
AcDbLine
 10
-76.70195
 20
104.524886
 30
0.0
 11
-76.70195
 21
112.524398
 31
0.0
  0
LINE
  5
5A
100
AcDbEntity
  8
EBENE_1
 62
   250
100
AcDbLine
 10
-68.039258
 20
126.481858
 30
0.0
 11
-76.891775
 21
126.481858
 31
0.0
  0
LINE
  5
59
100
AcDbEntity
  8
EBENE_1
 62
   250
100
AcDbLine
 10
-67.92557
 20
112.562294
 30
0.0
 11
-76.713664
 21
112.562294
 31
0.0
  0
LINE
  5
58
100
AcDbEntity
  8
EBENE_1
 62
   250
100
AcDbLine
 10
-37.778228
 20
162.916671
 30
0.0
 11
-102.25319
 21
162.916671
 31
0.0
  0
LINE
  5
57
100
AcDbEntity
  8
EBENE_1
 62
   250
100
AcDbLine
 10
-41.014551
 20
79.505569
 30
0.0
 11
-89.91148
 21
79.505569
 31
0.0
  0
LINE
  5
56
100
AcDbEntity
  8
EBENE_1
 62
   250
100
AcDbLine
 10
-89.909068
 20
124.010002
 30
0.0
 11
-89.909068
 21
159.302766
 31
0.0
  0
LINE
  5
55
100
AcDbEntity
  8
EBENE_1
 62
   250
100
AcDbLine
 10
-89.909413
 20
79.843188
 30
0.0
 11
-89.909413
 21
116.320204
 31
0.0
  0
POLYLINE
  5
50
100
AcDbEntity
  8
EBENE_1
 62
   250
100
AcDb2dPolyline
 66
     1
 10
0.0
 20
0.0
 30
0.0
 70
     1
  0
VERTEX
  5
51
100
AcDbEntity
  8
EBENE_1
 62
   250
100
AcDbVertex
100
AcDb2dVertex
 10
-89.91148
 20
79.518316
 30
0.0
  0
VERTEX
  5
52
100
AcDbEntity
  8
EBENE_1
 62
   250
100
AcDbVertex
100
AcDb2dVertex
 10
-90.908491
 20
83.51945
 30
0.0
  0
VERTEX
  5
53
100
AcDbEntity
  8
EBENE_1
 62
   250
100
AcDbVertex
100
AcDb2dVertex
 10
-88.914469
 20
83.51945
 30
0.0
  0
SEQEND
  5
54
100
AcDbEntity
  8
EBENE_1
 62
   250
  0
HATCH
  5
4F
100
AcDbEntity
  8
EBENE_1
 62
   250
100
AcDbHatch
 10
0.0
 20
0.0
 30
0.0
210
0.0
220
0.0
230
1.0
  2
SOLID
 70
     1
 71
     0
 91
        1
 92
        3
 72
     0
 73
     1
 93
        3
 10
-89.911480034722217
 20
79.518315972222211
 10
-90.908490668402763
 20
83.519449869791657
 10
-88.914469401041657
 20
83.519449869791657
 97
        0
 75
     0
 76
     1
 98
        1
 10
0.0
 20
0.0
  0
POLYLINE
  5
4A
100
AcDbEntity
  8
EBENE_1
 62
   250
100
AcDb2dPolyline
 66
     1
 10
0.0
 20
0.0
 30
0.0
 70
     1
  0
VERTEX
  5
4B
100
AcDbEntity
  8
EBENE_1
 62
   250
100
AcDbVertex
100
AcDb2dVertex
 10
-76.870071
 20
126.499083
 30
0.0
  0
VERTEX
  5
4C
100
AcDbEntity
  8
EBENE_1
 62
   250
100
AcDbVertex
100
AcDb2dVertex
 10
-77.867082
 20
130.500217
 30
0.0
  0
VERTEX
  5
4D
100
AcDbEntity
  8
EBENE_1
 62
   250
100
AcDbVertex
100
AcDb2dVertex
 10
-75.87306
 20
130.500217
 30
0.0
  0
SEQEND
  5
4E
100
AcDbEntity
  8
EBENE_1
 62
   250
  0
HATCH
  5
49
100
AcDbEntity
  8
EBENE_1
 62
   250
100
AcDbHatch
 10
0.0
 20
0.0
 30
0.0
210
0.0
220
0.0
230
1.0
  2
SOLID
 70
     1
 71
     0
 91
        1
 92
        3
 72
     0
 73
     1
 93
        3
 10
-76.870071072048603
 20
126.49908311631944
 10
-77.867081705729163
 20
130.50021701388889
 10
-75.873060438368043
 20
130.50021701388889
 97
        0
 75
     0
 76
     1
 98
        1
 10
0.0
 20
0.0
  0
POLYLINE
  5
44
100
AcDbEntity
  8
EBENE_1
 62
   250
100
AcDb2dPolyline
 66
     1
 10
0.0
 20
0.0
 30
0.0
  0
VERTEX
  5
45
100
AcDbEntity
  8
EBENE_1
 62
   250
100
AcDbVertex
100
AcDb2dVertex
 10
-89.915614
 20
159.449527
 30
0.0
  0
VERTEX
  5
46
100
AcDbEntity
  8
EBENE_1
 62
   250
100
AcDbVertex
100
AcDb2dVertex
 10
-88.918604
 20
155.448393
 30
0.0
  0
VERTEX
  5
47
100
AcDbEntity
  8
EBENE_1
 62
   250
100
AcDbVertex
100
AcDb2dVertex
 10
-90.912625
 20
155.448393
 30
0.0
  0
SEQEND
  5
48
100
AcDbEntity
  8
EBENE_1
 62
   250
  0
HATCH
  5
43
100
AcDbEntity
  8
EBENE_1
 62
   250
100
AcDbHatch
 10
0.0
 20
0.0
 30
0.0
210
0.0
220
0.0
230
1.0
  2
SOLID
 70
     1
 71
     0
 91
        1
 92
        3
 72
     0
 73
     0
 93
        3
 10
-89.915614149305554
 20
159.44952663845484
 10
-88.918603515624994
 20
155.4483927408854
 10
-90.9126247829861
 20
155.4483927408854
 97
        0
 75
     0
 76
     1
 98
        1
 10
0.0
 20
0.0
  0
POLYLINE
  5
3E
100
AcDbEntity
  8
EBENE_1
 62
   250
100
AcDb2dPolyline
 66
     1
 10
0.0
 20
0.0
 30
0.0
  0
VERTEX
  5
3F
100
AcDbEntity
  8
EBENE_1
 62
   250
100
AcDbVertex
100
AcDb2dVertex
 10
-76.64235
 20
112.590199
 30
0.0
  0
VERTEX
  5
40
100
AcDbEntity
  8
EBENE_1
 62
   250
100
AcDbVertex
100
AcDb2dVertex
 10
-75.64534
 20
108.589065
 30
0.0
  0
VERTEX
  5
41
100
AcDbEntity
  8
EBENE_1
 62
   250
100
AcDbVertex
100
AcDb2dVertex
 10
-77.639361
 20
108.589065
 30
0.0
  0
SEQEND
  5
42
100
AcDbEntity
  8
EBENE_1
 62
   250
  0
HATCH
  5
3D
100
AcDbEntity
  8
EBENE_1
 62
   250
100
AcDbHatch
 10
0.0
 20
0.0
 30
0.0
210
0.0
220
0.0
230
1.0
  2
SOLID
 70
     1
 71
     0
 91
        1
 92
        3
 72
     0
 73
     0
 93
        3
 10
-76.642350260416663
 20
112.59019911024305
 10
-75.645339626736103
 20
108.5890652126736
 10
-77.639360894097209
 20
108.5890652126736
 97
        0
 75
     0
 76
     1
 98
        1
 10
0.0
 20
0.0
  0
MTEXT
  5
3C
100
AcDbEntity
  8
EBENE_1
 62
   250
100
AcDbMText
 10
-94.470719
 20
122.244275
 30
0.0
 40
3.674769
 41
0.0
 71
     1
 72
     2
  1
\fMyriad Roman|b0|i0;80j6 
  7
STD
210
0.0
220
0.0
230
1.0
 11
1.000001
 21
0.0
 31
0.0
 73
     1
 44
1.0
  0
MTEXT
  5
3B
100
AcDbEntity
  8
EBENE_1
 62
   250
100
AcDbMText
 10
-81.880962
 20
122.092691
 30
0.0
 40
3.674769
 41
0.0
 71
     1
 72
     2
  1
\fMyriad Roman|b0|i0;14k6 
  7
STD
210
0.0
220
0.0
230
1.0
 11
1.000001
 21
0.0
 31
0.0
 73
     1
 44
1.0
  0
MTEXT
  5
3A
100
AcDbEntity
  8
EBENE_1
 62
   250
100
AcDbMText
 10
-6.7045
 20
120.282982
 30
0.0
 40
3.674769
 41
0.0
 71
     1
 72
     2
  1
\fMyriad Roman|b0|i0;74.0 
  7
STD
210
0.0
220
0.0
230
1.0
 11
1.000001
 21
0.0
 31
0.0
 73
     1
 44
1.0
  0
LINE
  5
39
100
AcDbEntity
  8
EBENE_1
 62
   250
100
AcDbLine
 10
-2.305802
 20
123.353022
 30
0.0
 11
-2.305802
 21
156.783884
 31
0.0
  0
LINE
  5
38
100
AcDbEntity
  8
EBENE_1
 62
   250
100
AcDbLine
 10
-2.160419
 20
82.647841
 30
0.0
 11
-2.160419
 21
114.478456
 31
0.0
  0
POLYLINE
  5
33
100
AcDbEntity
  8
EBENE_1
 62
   250
100
AcDb2dPolyline
 66
     1
 10
0.0
 20
0.0
 30
0.0
  0
VERTEX
  5
34
100
AcDbEntity
  8
EBENE_1
 62
   250
100
AcDbVertex
100
AcDb2dVertex
 10
-2.160419
 20
156.122942
 30
0.0
  0
VERTEX
  5
35
100
AcDbEntity
  8
EBENE_1
 62
   250
100
AcDbVertex
100
AcDb2dVertex
 10
-1.163409
 20
152.121809
 30
0.0
  0
VERTEX
  5
36
100
AcDbEntity
  8
EBENE_1
 62
   250
100
AcDbVertex
100
AcDb2dVertex
 10
-3.15743
 20
152.121809
 30
0.0
  0
SEQEND
  5
37
100
AcDbEntity
  8
EBENE_1
 62
   250
  0
HATCH
  5
32
100
AcDbEntity
  8
EBENE_1
 62
   250
100
AcDbHatch
 10
0.0
 20
0.0
 30
0.0
210
0.0
220
0.0
230
1.0
  2
SOLID
 70
     1
 71
     0
 91
        1
 92
        3
 72
     0
 73
     0
 93
        3
 10
-2.1604193793402775
 20
156.12294243706594
 10
-1.1634087456597222
 20
152.12180853949653
 10
-3.157430013020833
 20
152.12180853949653
 97
        0
 75
     0
 76
     1
 98
        1
 10
0.0
 20
0.0
  0
POLYLINE
  5
2D
100
AcDbEntity
  8
EBENE_1
 62
   250
100
AcDb2dPolyline
 66
     1
 10
0.0
 20
0.0
 30
0.0
  0
VERTEX
  5
2E
100
AcDbEntity
  8
EBENE_1
 62
   250
100
AcDbVertex
100
AcDb2dVertex
 10
-3.15743
 20
86.291718
 30
0.0
  0
VERTEX
  5
2F
100
AcDbEntity
  8
EBENE_1
 62
   250
100
AcDbVertex
100
AcDb2dVertex
 10
-1.163409
 20
86.291718
 30
0.0
  0
VERTEX
  5
30
100
AcDbEntity
  8
EBENE_1
 62
   250
100
AcDbVertex
100
AcDb2dVertex
 10
-2.160419
 20
82.290584
 30
0.0
  0
SEQEND
  5
31
100
AcDbEntity
  8
EBENE_1
 62
   250
  0
HATCH
  5
2C
100
AcDbEntity
  8
EBENE_1
 62
   250
100
AcDbHatch
 10
0.0
 20
0.0
 30
0.0
210
0.0
220
0.0
230
1.0
  2
SOLID
 70
     1
 71
     0
 91
        1
 92
        3
 72
     0
 73
     0
 93
        3
 10
-3.157430013020833
 20
86.291718207465266
 10
-1.1634087456597222
 20
86.291718207465266
 10
-2.1604193793402775
 20
82.29058430989582
 97
        0
 75
     0
 76
     1
 98
        1
 10
0.0
 20
0.0
  0
LINE
  5
2B
100
AcDbEntity
  8
EBENE_1
 62
   250
100
AcDbLine
 10
-67.095991
 20
112.579519
 30
0.0
 11
-67.095991
 21
126.507351
 31
0.0
  0
MTEXT
  5
2A
100
AcDbEntity
  8
EBENE_1
 62
   250
100
AcDbMText
 10
104.435141
 20
229.723331
 30
0.0
 40
3.674769
 41
0.0
 71
     1
 72
     2
  1
\fMyriad Roman|b0|i0;261.5
  7
STD
210
0.0
220
0.0
230
1.0
 11
1.000001
 21
0.0
 31
0.0
 73
     1
 44
1.0
  0
MTEXT
  5
29
100
AcDbEntity
  8
EBENE_1
 62
   250
100
AcDbMText
 10
50.209166
 20
215.899885
 30
0.0
 40
3.674769
 41
0.0
 71
     1
 72
     2
  1
\fMyriad Roman|b0|i0;159 
  7
STD
210
0.0
220
0.0
230
1.0
 11
1.000001
 21
0.0
 31
0.0
 73
     1
 44
1.0
  0
ENDSEC
  0
SECTION
  2
OBJECTS
  0
DICTIONARY
  5
19
100
AcDbDictionary
280
     0
281
     1
  3
ACAD_GROUP
350
1A
  3
ACAD_MLINESTYLE
350
1B
  3
ACAD_LAYOUT
350
1E
  3
ACAD_PLOTSETTINGS
350
22
  3
ACAD_PLOTSTYLENAME
350
1F
  3
ACAD_WIPEOUT_VARS
350
23
  0
DICTIONARY
  5
1A
102
{ACAD_REACTORS
330
19
102
}
100
AcDbDictionary
280
     0
281
     1
  0
DICTIONARY
  5
1B
102
{ACAD_REACTORS
330
19
102
}
100
AcDbDictionary
280
     0
281
     1
  3
Standard
350
1C
  0
MLINESTYLE
  5
1C
102
{ACAD_REACTORS
330
1B
102
}
100
AcDbMlineStyle
  2
Standard
 70
     0
  3

 62
     0
 51
90.0
 52
90.0
 71
     2
 49
0.5
 62
   256
  6
BYLAYER
 49
-0.5
 62
   256
  6
BYLAYER
  0
ACDBDICTIONARYWDFLT
  5
1F
102
{ACAD_REACTORS
330
19
102
}
100
AcDbDictionary
281
     1
  3
Normal
350
1D
100
AcDbDictionaryWithDefault
340
1D
  0
ACDBPLACEHOLDER
  5
1D
102
{ACAD_REACTORS
330
1F
102
}
  0
LAYOUT
  5
20
102
{ACAD_REACTORS
330
1E
102
}
100
AcDbPlotSettings
  1

  2

  4

  6

 40
0.0
 41
0.0
 42
0.0
 43
0.0
 44
0.0
 45
0.0
 46
0.0
 47
0.0
 48
0.0
 49
0.0
140
0.0
141
0.0
142
1.0
143
1.0
 70
  1024
 72
     0
 73
     0
 74
     0
  7

 75
     0
147
1.0
148
0.0
149
0.0
100
AcDbLayout
  1
Model
 70
     0
 71
     0
 10
0.0
 20
0.0
 11
0.0
 21
0.0
 12
0.0
 22
0.0
 32
0.0
 14
0.0
 24
0.0
 34
0.0
 15
0.0
 25
0.0
 35
0.0
146
0.0
 13
0.0
 23
0.0
 33
0.0
 16
0.0
 26
0.0
 36
0.0
 17
0.0
 27
0.0
 37
0.0
 76
     0
330
A
331
0
345
0
346
0
  0
LAYOUT
  5
21
102
{ACAD_REACTORS
330
1E
102
}
100
AcDbPlotSettings
  1

  2

  4

  6

 40
0.0
 41
0.0
 42
0.0
 43
0.0
 44
0.0
 45
0.0
 46
0.0
 47
0.0
 48
0.0
 49
0.0
140
0.0
141
0.0
142
1.0
143
1.0
 70
     0
 72
     0
 73
     0
 74
     0
  7

 75
     0
147
1.0
148
0.0
149
0.0
100
AcDbLayout
  1
Layout1
 70
     0
 71
     0
 10
0.0
 20
0.0
 11
0.0
 21
0.0
 12
0.0
 22
0.0
 32
0.0
 14
0.0
 24
0.0
 34
0.0
 15
0.0
 25
0.0
 35
0.0
146
0.0
 13
0.0
 23
0.0
 33
0.0
 16
0.0
 26
0.0
 36
0.0
 17
0.0
 27
0.0
 37
0.0
 76
     0
330
B
331
0
345
0
346
0
  0
DICTIONARY
  5
1E
102
{ACAD_REACTORS
330
19
102
}
100
AcDbDictionary
280
     0
281
     1
  3
Layout1
350
21
  3
Model
350
20
  0
DICTIONARY
  5
22
102
{ACAD_REACTORS
330
19
102
}
100
AcDbDictionary
280
     0
281
     1
  0
WIPEOUTVARIABLES
  5
23
100
AcDbWipeoutVariables
 70
     1
  0
ENDSEC
  0
EOF
