  0
SECTION
  2
HEADER
  9
$ACADVER
  1
AC1015
  9
$ACADMAINTVER
 70
     6
  9
$DWGCODEPAGE
  3
ANSI_932
  9
$INSBASE
 10
0.0
 20
0.0
 30
0.0
  9
$EXTMIN
 10
-73.860091
 20
67.886296
 30
1.000000E+20
  9
$EXTMAX
 10
290.294425
 20
265.252026
 30
-1.000000E+20
  9
$LIMMIN
 10
-73.860091
 20
67.886296
  9
$LIMMAX
 10
290.294425
 20
265.252026
  9
$ORTHOMODE
 70
     0
  9
$REGENMODE
 70
     1
  9
$FILLMODE
 70
     1
  9
$QTEXTMODE
 70
     0
  9
$MIRRTEXT
 70
     1
  9
$LTSCALE
 40
1.0
  9
$ATTMODE
 70
     1
  9
$TEXTSIZE
 40
0.2
  9
$TRACEWID
 40
0.05
  9
$TEXTSTYLE
  7
Standard
  9
$CLAYER
  8
0
  9
$CELTYPE
  6
Continuous
  9
$CECOLOR
 62
   256
  9
$CELTSCALE
 40
1.0
  9
$DISPSILH
 70
     0
  9
$DIMSCALE
 40
1.0
  9
$DIMASZ
 40
0.18
  9
$DIMEXO
 40
0.0625
  9
$DIMDLI
 40
0.38
  9
$DIMRND
 40
0.0
  9
$DIMDLE
 40
0.0
  9
$DIMEXE
 40
0.18
  9
$DIMTP
 40
0.0
  9
$DIMTM
 40
0.0
  9
$DIMTXT
 40
0.18
  9
$DIMCEN
 40
0.09
  9
$DIMTSZ
 40
0.0
  9
$DIMTOL
 70
     0
  9
$DIMLIM
 70
     0
  9
$DIMTIH
 70
     1
  9
$DIMTOH
 70
     1
  9
$DIMSE1
 70
     0
  9
$DIMSE2
 70
     0
  9
$DIMTAD
 70
     0
  9
$DIMZIN
 70
     0
  9
$DIMBLK
  1

  9
$DIMASO
 70
     1
  9
$DIMSHO
 70
     1
  9
$DIMPOST
  1

  9
$DIMAPOST
  1

  9
$DIMALT
 70
     0
  9
$DIMALTD
 70
     2
  9
$DIMALTF
 40
25.4
  9
$DIMLFAC
 40
1.0
  9
$DIMTOFL
 70
     0
  9
$DIMTVP
 40
0.0
  9
$DIMTIX
 70
     0
  9
$DIMSOXD
 70
     0
  9
$DIMSAH
 70
     0
  9
$DIMBLK1
  1

  9
$DIMBLK2
  1

  9
$DIMSTYLE
  2
Standard
  9
$DIMCLRD
 70
     0
  9
$DIMCLRE
 70
     0
  9
$DIMCLRT
 70
     0
  9
$DIMTFAC
 40
1.0
  9
$DIMGAP
 40
0.09
  9
$DIMJUST
 70
     0
  9
$DIMSD1
 70
     0
  9
$DIMSD2
 70
     0
  9
$DIMTOLJ
 70
     1
  9
$DIMTZIN
 70
     0
  9
$DIMALTZ
 70
     0
  9
$DIMALTTZ
 70
     0
  9
$DIMUPT
 70
     0
  9
$DIMDEC
 70
     4
  9
$DIMTDEC
 70
     4
  9
$DIMALTU
 70
     2
  9
$DIMALTTD
 70
     2
  9
$DIMTXSTY
  7
Standard
  9
$DIMAUNIT
 70
     0
  9
$DIMADEC
 70
     0
  9
$DIMALTRND
 40
0.0
  9
$DIMAZIN
 70
     0
  9
$DIMDSEP
 70
     0
  9
$DIMATFIT
 70
     3
  9
$DIMFRAC
 70
     0
  9
$DIMLDRBLK
  1

  9
$DIMLUNIT
 70
     2
  9
$DIMLWD
 70
     0
  9
$DIMLWE
 70
     0
  9
$DIMTMOVE
 70
     0
  9
$LUNITS
 70
     2
  9
$LUPREC
 70
     4
  9
$SKETCHINC
 40
0.1
  9
$FILLETRAD
 40
0.0
  9
$AUNITS
 70
     0
  9
$AUPREC
 70
     0
  9
$MENU
  1
acad
  9
$ELEVATION
 40
0.0
  9
$PELEVATION
 40
0.0
  9
$THICKNESS
 40
0.0
  9
$LIMCHECK
 70
     0
  9
$CHAMFERA
 40
0.0
  9
$CHAMFERB
 40
0.0
  9
$CHAMFERC
 40
0.0
  9
$CHAMFERD
 40
0.0
  9
$SKPOLY
 70
     0
  9
$TDCREATE
 40
0.000000000
  9
$TDUCREATE
 40
0.000000000
  9
$TDUPDATE
 40
0.000000000
  9
$TDUUPDATE
 40
0.000000000
  9
$TDINDWG
 40
0.0000000000
  9
$TDUSRTIMER
 40
0.0000000000
  9
$USRTIMER
 70
     1
  9
$ANGBASE
 50
0.0
  9
$ANGDIR
 70
     0
  9
$PDMODE
 70
     0
  9
$PDSIZE
 40
0.0
  9
$PLINEWID
 40
0.0
  9
$SPLFRAME
 70
     0
  9
$SPLINETYPE
 70
     6
  9
$SPLINESEGS
 70
     8
  9
$HANDSEED
  5
296
  9
$SURFTAB1
 70
     6
  9
$SURFTAB2
 70
     6
  9
$SURFTYPE
 70
     6
  9
$SURFU
 70
     6
  9
$SURFV
 70
     6
  9
$UCSBASE
  2

  9
$UCSNAME
  2

  9
$UCSORG
 10
0.0
 20
0.0
 30
0.0
  9
$UCSXDIR
 10
1.0
 20
0.0
 30
0.0
  9
$UCSYDIR
 10
0.0
 20
1.0
 30
0.0
  9
$UCSORTHOREF
  2

  9
$UCSORTHOVIEW
 70
     0
  9
$UCSORGTOP
 10
0.0
 20
0.0
 30
0.0
  9
$UCSORGBOTTOM
 10
0.0
 20
0.0
 30
0.0
  9
$UCSORGLEFT
 10
0.0
 20
0.0
 30
0.0
  9
$UCSORGRIGHT
 10
0.0
 20
0.0
 30
0.0
  9
$UCSORGFRONT
 10
0.0
 20
0.0
 30
0.0
  9
$UCSORGBACK
 10
0.0
 20
0.0
 30
0.0
  9
$PUCSBASE
  2

  9
$PUCSNAME
  2

  9
$PUCSORG
 10
0.0
 20
0.0
 30
0.0
  9
$PUCSXDIR
 10
1.0
 20
0.0
 30
0.0
  9
$PUCSYDIR
 10
0.0
 20
1.0
 30
0.0
  9
$PUCSORTHOREF
  2

  9
$PUCSORTHOVIEW
 70
     0
  9
$PUCSORGTOP
 10
0.0
 20
0.0
 30
0.0
  9
$PUCSORGBOTTOM
 10
0.0
 20
0.0
 30
0.0
  9
$PUCSORGLEFT
 10
0.0
 20
0.0
 30
0.0
  9
$PUCSORGRIGHT
 10
0.0
 20
0.0
 30
0.0
  9
$PUCSORGFRONT
 10
0.0
 20
0.0
 30
0.0
  9
$PUCSORGBACK
 10
0.0
 20
0.0
 30
0.0
  9
$USERI1
 70
     0
  9
$USERI2
 70
     0
  9
$USERI3
 70
     0
  9
$USERI4
 70
     0
  9
$USERI5
 70
     0
  9
$USERR1
 40
0.0
  9
$USERR2
 40
0.0
  9
$USERR3
 40
0.0
  9
$USERR4
 40
0.0
  9
$USERR5
 40
0.0
  9
$WORLDVIEW
 70
     1
  9
$SHADEDGE
 70
     3
  9
$SHADEDIF
 70
    70
  9
$TILEMODE
 70
     1
  9
$MAXACTVP
 70
    16
  9
$PINSBASE
 10
0.0
 20
0.0
 30
0.0
  9
$PLIMCHECK
 70
     0
  9
$PEXTMIN
 10
1.000000E+20
 20
1.000000E+20
 30
1.000000E+20
  9
$PEXTMAX
 10
-1.000000E+20
 20
-1.000000E+20
 30
-1.000000E+20
  9
$PLIMMIN
 10
0.0
 20
0.0
  9
$PLIMMAX
 10
12.0
 20
9.0
  9
$UNITMODE
 70
     0
  9
$VISRETAIN
 70
     0
  9
$PLINEGEN
 70
     1
  9
$PSLTSCALE
 70
     0
  9
$TREEDEPTH
 70
  3020
  9
$CMLSTYLE
  2
Standard
  9
$CMLJUST
 70
     0
  9
$CMLSCALE
 40
1.0
  9
$PROXYGRAPHICS
 70
     0
  9
$MEASUREMENT
 70
     0
  9
$CELWEIGHT
370
     0
  9
$ENDCAPS
280
     0
  9
$JOINSTYLE
280
     0
  9
$LWDISPLAY
290
     0
  9
$INSUNITS
 70
     0
  9
$HYPERLINKBASE
  1

  9
$XEDIT
290
     1
  9
$CEPSNTYPE
380
     0
  9
$PSTYLEMODE
290
     1
  9
$FINGERPRINTGUID
  2

  9
$VERSIONGUID
  2

  9
$EXTNAMES
290
     1
  9
$PSVPSCALE
 40
0.0
  0
ENDSEC
  0
SECTION
  2
CLASSES
  0
CLASS
  1
LWPOLYLINE
  2
AcDbPolyline
  3
"AutoCAD"
 90
        0
280
     0
281
     1
  0
CLASS
  1
IMAGE
  2
AcDbRasterImage
  3
ISM
 90
      127
280
     0
281
     1
  0
CLASS
  1
OLE2FRAME
  2
AcDbOle2Frame
  3
""
 90
        0
280
     0
281
     1
  0
CLASS
  1
HATCH
  2
AcDbHatch
  3
"ACAD_SEDONA"
 90
        0
280
     0
281
     1
  0
CLASS
  1
DICTIONARYVAR
  2
AcDbDictionaryVar
  3
"AutoCAD"
 90
        0
280
     0
281
     0
  0
CLASS
  1
RASTERVARIABLES
  2
AcDbRasterVariables
  3
ISM
 90
        0
280
     0
281
     0
  0
CLASS
  1
IMAGEDEF
  2
AcDbRasterImageDef
  3
ISM
 90
        0
280
     0
281
     0
  0
CLASS
  1
IMAGEDEF_REACTOR
  2
AcDbRasterImageDefReactor
  3
ISM
 90
        1
280
     0
281
     0
  0
CLASS
  1
IDBUFFER
  2
AcDbIdBuffer
  3
"Acad"
 90
        0
280
     0
281
     0
  0
CLASS
  1
SPATIAL_FILTER
  2
AcDbSpatialFilter
  3
"Acad"
 90
        0
280
     0
281
     0
  0
CLASS
  1
XRECORD
  2
AcDbXrecord
  3
"<Built In>"
 90
        0
280
     0
281
     0
  0
CLASS
  1
SORTENTSTABLE
  2
AcDbSortentsTable
  3
"AutoCAD"
 90
        0
280
     0
281
     0
  0
CLASS
  1
LAYER_INDEX
  2
AcDbLayerIndex
  3
"Acad"
 90
        0
280
     0
281
     0
  0
CLASS
  1
SPATIAL_INDEX
  2
AcDbSpatialIndex
  3
"Acad"
 90
        0
280
     0
281
     0
  0
CLASS
  1
OBJECT_PTR
  2
CAseDLPNTableRecord
  3
"ASE-LPNTableRecord"
 90
        1
280
     0
281
     0
  0
CLASS
  1
LAYOUT
  2
AcDbLayout
  3
"AutoCAD 2000"
 90
        1
280
     0
281
     0
  0
CLASS
  1
PLOTSETTINGS
  2
AcDbPlotSettings
  3
"AutoCAD 2000"
 90
        1
280
     0
281
     0
  0
CLASS
  1
ACDBDICTIONARYWDFLT
  2
AcDbDictionaryWithDefault
  3
"AutoCAD 2000"
 90
        1
280
     0
281
     0
  0
CLASS
  1
ACDBPLACEHOLDER
  2
AcDbPlaceHolder
  3
"AutoCAD 2000"
 90
        1
280
     0
281
     0
  0
CLASS
  1
VBA_PROJECT
  2
AcDbVbaProject
  3
"acadvba"
 90
        1
280
     0
281
     0
  0
CLASS
  1
WIPEOUT
  2
AcDbWipeout
  3
WipeOut|AutoCAD Express Tool|expresstools@autodesk.com
 90
      127
280
     0
281
     1
  0
CLASS
  1
WIPEOUTVARIABLES
  2
AcDbWipeoutVariables
  3
WipeOut|AutoCAD Express Tool|expresstools@autodesk.com
 90
        0
280
     0
281
     0
  0
CLASS
  1
RTEXT
  2
RText
  3
RText|AutoCAD Express Tool|expresstools@autodesk.com
 90
        0
280
     0
281
     1
  0
CLASS
  1
ARCALIGNEDTEXT
  2
AcDbArcAlignedText
  3
ATEXT|AutoCAD Express Tool|expresstools@autodesk.com
 90
        0
280
     0
281
     1
  0
ENDSEC
  0
SECTION
  2
TABLES
  0
TABLE
  2
VPORT
  5
7
100
AcDbSymbolTable
 70
     1
  0
VPORT
  5
15
100
AcDbSymbolTableRecord
100
AcDbViewportTableRecord
  2
*ACTIVE
 70
     0
 10
0.0
 20
0.0
 11
1.0
 21
1.0
 12
6.591288
 22
4.579184
 13
0.0
 23
0.0
 14
1.0
 24
1.0
 15
0.0
 25
0.0
 16
0.0
 26
0.0
 36
1.0
 17
0.0
 27
0.0
 37
0.0
 40
9.158369
 41
0.688564
 42
50.0
 43
0.0
 44
0.0
 50
0.0
 51
0.0
 71
     0
 72
   100
 73
     1
 74
     1
 75
     0
 76
     0
 77
     0
 78
     0
281
     0
 65
     0
110
0.0
120
0.0
130
0.0
111
1.0
121
0.0
131
0.0
112
0.0
122
1.0
132
0.0
345
0
346
0
 79
     0
146
0.0
  0
ENDTAB
  0
TABLE
  2
LTYPE
  5
4
100
AcDbSymbolTable
 70
     3
  0
LTYPE
  5
11
100
AcDbSymbolTableRecord
100
AcDbLinetypeTableRecord
  2
ByBlock
 70
    64
  3

 72
    65
 73
     0
 40
0.0
  0
LTYPE
  5
12
100
AcDbSymbolTableRecord
100
AcDbLinetypeTableRecord
  2
ByLayer
 70
    64
  3

 72
    65
 73
     0
 40
0.0
  0
LTYPE
  5
13
100
AcDbSymbolTableRecord
100
AcDbLinetypeTableRecord
  2
Continuous
 70
    64
  3
Solid line
 72
    65
 73
     0
 40
0.0
  0
ENDTAB
  0
TABLE
  2
LAYER
  5
2
100
AcDbSymbolTable
 70
     2
  0
LAYER
  5
14
100
AcDbSymbolTableRecord
100
AcDbLayerTableRecord
  2
0
 70
     0
 62
     7
  6
Continuous
290
     1
370
    -3
390
1D
  0
LAYER
  5
28
100
AcDbSymbolTableRecord
100
AcDbLayerTableRecord
  2
EBENE_1
 70
     0
 62
   160
  6
Continuous
290
     1
370
    -3
390
1F
  0
ENDTAB
  0
TABLE
  2
STYLE
  5
3
100
AcDbSymbolTable
 70
     5
  0
STYLE
  5
17
100
AcDbSymbolTableRecord
100
AcDbTextStyleTableRecord
  2
Standard
 70
     0
 40
0.0
 41
1.0
 50
0.0
 71
     0
 42
0.0
  3
txt
  4

  0
STYLE
  5
24
100
AcDbSymbolTableRecord
100
AcDbTextStyleTableRecord
  2
STD
 70
     0
 40
0.0
 41
1.0
 50
0.0
 71
     0
 42
0.0
  3
txt
  4

  0
STYLE
  5
25
100
AcDbSymbolTableRecord
100
AcDbTextStyleTableRecord
  2
TATESTD
 70
     4
 40
0.0
 41
1.0
 50
0.0
 71
     0
 42
0.0
  3
txt
  4

  0
STYLE
  5
26
100
AcDbSymbolTableRecord
100
AcDbTextStyleTableRecord
  2
KANJISTD
 70
     0
 40
0.0
 41
1.0
 50
0.0
 71
     0
 42
0.0
  3
txt
  4
extfont
  0
STYLE
  5
27
100
AcDbSymbolTableRecord
100
AcDbTextStyleTableRecord
  2
KANJITATE
 70
     4
 40
0.0
 41
1.0
 50
0.0
 71
     0
 42
0.0
  3
txt
  4
extfont
  0
ENDTAB
  0
TABLE
  2
VIEW
  5
5
100
AcDbSymbolTable
 70
     0
  0
ENDTAB
  0
TABLE
  2
UCS
  5
6
100
AcDbSymbolTable
 70
     0
  0
ENDTAB
  0
TABLE
  2
APPID
  5
8
100
AcDbSymbolTable
 70
     1
  0
APPID
  5
16
100
AcDbSymbolTableRecord
100
AcDbRegAppTableRecord
  2
ACAD
 70
     0
  0
ENDTAB
  0
TABLE
  2
DIMSTYLE
  5
9
100
AcDbSymbolTable
 70
     1
100
AcDbDimStyleTable
 71
     0
  0
DIMSTYLE
105
18
100
AcDbSymbolTableRecord
100
AcDbDimStyleTableRecord
  2
Standard
 70
     0
  3

  4

 40
1.0
 41
0.18
 42
0.0625
 43
0.38
 44
0.18
 45
0.0
 46
0.0
 47
0.0
 48
0.0
 71
     0
 72
     0
 73
     1
 74
     1
 75
     0
 76
     0
 77
     0
 78
     0
 79
     0
140
0.18
141
0.09
142
0.0
143
25.4
144
1.0
145
0.0
146
1.0
147
0.09
148
0.0
170
     0
171
     2
172
     0
173
     0
174
     0
175
     0
176
     0
177
     0
178
     0
179
     0
271
     4
272
     4
273
     2
274
     2
275
     0
276
     0
277
     2
278
    46
279
     0
280
     0
281
     0
282
     0
283
     1
284
     0
285
     0
286
     0
288
     0
340
17
341
0
342
0
343
0
344
0
371
    -2
372
    -2
  0
ENDTAB
  0
TABLE
  2
BLOCK_RECORD
  5
1
100
AcDbSymbolTable
 70
     0
  0
BLOCK_RECORD
  5
A
100
AcDbSymbolTableRecord
100
AcDbBlockTableRecord
  2
*MODEL_SPACE
340
20
  0
BLOCK_RECORD
  5
B
100
AcDbSymbolTableRecord
100
AcDbBlockTableRecord
  2
*PAPER_SPACE
340
21
  0
ENDTAB
  0
ENDSEC
  0
SECTION
  2
BLOCKS
  0
BLOCK
  5
D
100
AcDbEntity
  8
0
100
AcDbBlockBegin
  2
*MODEL_SPACE
 70
     0
 10
0.0
 20
0.0
 30
0.0
  3
*MODEL_SPACE
  1

  0
ENDBLK
  5
E
100
AcDbEntity
  8
0
100
AcDbBlockEnd
  0
BLOCK
  5
F
100
AcDbEntity
 67
     1
  8
0
100
AcDbBlockBegin
  2
*PAPER_SPACE
 70
     0
 10
0.0
 20
0.0
 30
0.0
  3
*PAPER_SPACE
  1

  0
ENDBLK
  5
10
100
AcDbEntity
 67
     1
  8
0
100
AcDbBlockEnd
  0
ENDSEC
  0
SECTION
  2
ENTITIES
  0
LINE
  5
295
100
AcDbEntity
  8
EBENE_1
 62
   250
100
AcDbLine
 10
155.449254
 20
172.511434
 30
0.0
 11
155.449254
 21
164.511578
 31
0.0
  0
LINE
  5
294
100
AcDbEntity
  8
EBENE_1
 62
   250
100
AcDbLine
 10
154.949026
 20
172.511434
 30
0.0
 11
154.949026
 21
164.511578
 31
0.0
  0
LINE
  5
293
100
AcDbEntity
  8
EBENE_1
 62
   250
100
AcDbLine
 10
154.449143
 20
172.511434
 30
0.0
 11
154.449143
 21
164.511578
 31
0.0
  0
LINE
  5
292
100
AcDbEntity
  8
EBENE_1
 62
   250
100
AcDbLine
 10
153.949259
 20
172.511434
 30
0.0
 11
153.949259
 21
164.511578
 31
0.0
  0
LINE
  5
291
100
AcDbEntity
  8
EBENE_1
 62
   250
100
AcDbLine
 10
153.449032
 20
172.511434
 30
0.0
 11
153.449032
 21
164.511578
 31
0.0
  0
LINE
  5
290
100
AcDbEntity
  8
EBENE_1
 62
   250
100
AcDbLine
 10
152.449265
 20
164.511578
 30
0.0
 11
156.949249
 21
164.511578
 31
0.0
  0
LINE
  5
28F
100
AcDbEntity
  8
EBENE_1
 62
   250
100
AcDbLine
 10
152.449265
 20
172.511434
 30
0.0
 11
156.949249
 21
172.511434
 31
0.0
  0
LINE
  5
28E
100
AcDbEntity
  8
EBENE_1
 62
   250
100
AcDbLine
 10
152.449265
 20
165.011461
 30
0.0
 11
152.449265
 21
172.011378
 31
0.0
  0
POLYLINE
  5
289
100
AcDbEntity
  8
EBENE_1
 62
   250
100
AcDb2dPolyline
 66
     1
 10
0.0
 20
0.0
 30
0.0
  0
VERTEX
  5
28A
100
AcDbEntity
  8
EBENE_1
 62
   250
100
AcDbVertex
100
AcDb2dVertex
 10
151.449154
 20
165.011461
 30
0.0
  0
VERTEX
  5
28B
100
AcDbEntity
  8
EBENE_1
 62
   250
100
AcDbVertex
100
AcDb2dVertex
 10
152.449265
 20
165.011461
 30
0.0
  0
VERTEX
  5
28C
100
AcDbEntity
  8
EBENE_1
 62
   250
100
AcDbVertex
100
AcDb2dVertex
 10
152.449265
 20
164.511578
 30
0.0
  0
SEQEND
  5
28D
100
AcDbEntity
  8
EBENE_1
 62
   250
  0
POLYLINE
  5
283
100
AcDbEntity
  8
EBENE_1
 62
   250
100
AcDb2dPolyline
 66
     1
 10
0.0
 20
0.0
 30
0.0
  0
VERTEX
  5
284
100
AcDbEntity
  8
EBENE_1
 62
   250
100
AcDbVertex
100
AcDb2dVertex
 10
151.449154
 20
172.511434
 30
0.0
  0
VERTEX
  5
285
100
AcDbEntity
  8
EBENE_1
 62
   250
100
AcDbVertex
100
AcDb2dVertex
 10
151.449154
 20
172.011378
 30
0.0
  0
VERTEX
  5
286
100
AcDbEntity
  8
EBENE_1
 62
   250
100
AcDbVertex
100
AcDb2dVertex
 10
152.449265
 20
172.011378
 30
0.0
  0
VERTEX
  5
287
100
AcDbEntity
  8
EBENE_1
 62
   250
100
AcDbVertex
100
AcDb2dVertex
 10
152.449265
 20
172.511434
 30
0.0
  0
SEQEND
  5
288
100
AcDbEntity
  8
EBENE_1
 62
   250
  0
POLYLINE
  5
27A
100
AcDbEntity
  8
EBENE_1
 62
   250
100
AcDb2dPolyline
 66
     1
 10
0.0
 20
0.0
 30
0.0
  0
VERTEX
  5
27B
100
AcDbEntity
  8
EBENE_1
 62
   250
100
AcDbVertex
100
AcDb2dVertex
 10
149.949159
 20
172.011378
 30
0.0
  0
VERTEX
  5
27C
100
AcDbEntity
  8
EBENE_1
 62
   250
100
AcDbVertex
100
AcDb2dVertex
 10
150.94927
 20
172.511434
 30
0.0
  0
VERTEX
  5
27D
100
AcDbEntity
  8
EBENE_1
 62
   250
100
AcDbVertex
100
AcDb2dVertex
 10
151.449154
 20
172.511434
 30
0.0
  0
VERTEX
  5
27E
100
AcDbEntity
  8
EBENE_1
 62
   250
100
AcDbVertex
100
AcDb2dVertex
 10
151.449154
 20
164.511578
 30
0.0
  0
VERTEX
  5
27F
100
AcDbEntity
  8
EBENE_1
 62
   250
100
AcDbVertex
100
AcDb2dVertex
 10
150.94927
 20
164.511578
 30
0.0
  0
VERTEX
  5
280
100
AcDbEntity
  8
EBENE_1
 62
   250
100
AcDbVertex
100
AcDb2dVertex
 10
149.949159
 20
165.011461
 30
0.0
  0
VERTEX
  5
281
100
AcDbEntity
  8
EBENE_1
 62
   250
100
AcDbVertex
100
AcDb2dVertex
 10
149.949159
 20
172.011378
 30
0.0
  0
SEQEND
  5
282
100
AcDbEntity
  8
EBENE_1
 62
   250
  0
LINE
  5
279
100
AcDbEntity
  8
EBENE_1
 62
   250
100
AcDbLine
 10
157.112546
 20
197.158336
 30
0.0
 11
146.937801
 21
197.129053
 31
0.0
  0
LINE
  5
278
100
AcDbEntity
  8
EBENE_1
 62
   250
100
AcDbLine
 10
155.449254
 20
195.511408
 30
0.0
 11
155.449254
 21
181.511401
 31
0.0
  0
LINE
  5
277
100
AcDbEntity
  8
EBENE_1
 62
   250
100
AcDbLine
 10
154.449143
 20
181.511401
 30
0.0
 11
154.449143
 21
195.511408
 31
0.0
  0
LINE
  5
276
100
AcDbEntity
  8
EBENE_1
 62
   250
100
AcDbLine
 10
153.449032
 20
195.511408
 30
0.0
 11
153.449032
 21
181.511401
 31
0.0
  0
LINE
  5
275
100
AcDbEntity
  8
EBENE_1
 62
   250
100
AcDbLine
 10
152.449265
 20
195.511408
 30
0.0
 11
152.449265
 21
181.511401
 31
0.0
  0
POLYLINE
  5
260
100
AcDbEntity
  8
EBENE_1
 62
   250
100
AcDb2dPolyline
 66
     1
 10
0.0
 20
0.0
 30
0.0
 70
     1
  0
VERTEX
  5
261
100
AcDbEntity
  8
EBENE_1
 62
   250
100
AcDbVertex
100
AcDb2dVertex
 10
155.449254
 20
181.511401
 30
0.0
  0
VERTEX
  5
262
100
AcDbEntity
  8
EBENE_1
 62
   250
100
AcDbVertex
100
AcDb2dVertex
 10
156.949249
 20
181.511401
 30
0.0
  0
VERTEX
  5
263
100
AcDbEntity
  8
EBENE_1
 62
   250
100
AcDbVertex
100
AcDb2dVertex
 10
156.949249
 20
195.511408
 30
0.0
  0
VERTEX
  5
264
100
AcDbEntity
  8
EBENE_1
 62
   250
100
AcDbVertex
100
AcDb2dVertex
 10
155.449254
 20
195.511408
 30
0.0
  0
VERTEX
  5
265
100
AcDbEntity
  8
EBENE_1
 62
   250
100
AcDbVertex
100
AcDb2dVertex
 10
154.949026
 20
196.011464
 30
0.0
  0
VERTEX
  5
266
100
AcDbEntity
  8
EBENE_1
 62
   250
100
AcDbVertex
100
AcDb2dVertex
 10
154.449143
 20
195.511408
 30
0.0
  0
VERTEX
  5
267
100
AcDbEntity
  8
EBENE_1
 62
   250
100
AcDbVertex
100
AcDb2dVertex
 10
153.949259
 20
196.011464
 30
0.0
  0
VERTEX
  5
268
100
AcDbEntity
  8
EBENE_1
 62
   250
100
AcDbVertex
100
AcDb2dVertex
 10
153.449032
 20
195.511408
 30
0.0
  0
VERTEX
  5
269
100
AcDbEntity
  8
EBENE_1
 62
   250
100
AcDbVertex
100
AcDb2dVertex
 10
152.949148
 20
196.011464
 30
0.0
  0
VERTEX
  5
26A
100
AcDbEntity
  8
EBENE_1
 62
   250
100
AcDbVertex
100
AcDb2dVertex
 10
152.449265
 20
195.511408
 30
0.0
  0
VERTEX
  5
26B
100
AcDbEntity
  8
EBENE_1
 62
   250
100
AcDbVertex
100
AcDb2dVertex
 10
146.94917
 20
195.511408
 30
0.0
  0
VERTEX
  5
26C
100
AcDbEntity
  8
EBENE_1
 62
   250
100
AcDbVertex
100
AcDb2dVertex
 10
146.94917
 20
181.511401
 30
0.0
  0
VERTEX
  5
26D
100
AcDbEntity
  8
EBENE_1
 62
   250
100
AcDbVertex
100
AcDb2dVertex
 10
152.449265
 20
181.511401
 30
0.0
  0
VERTEX
  5
26E
100
AcDbEntity
  8
EBENE_1
 62
   250
100
AcDbVertex
100
AcDb2dVertex
 10
152.949148
 20
181.011518
 30
0.0
  0
VERTEX
  5
26F
100
AcDbEntity
  8
EBENE_1
 62
   250
100
AcDbVertex
100
AcDb2dVertex
 10
153.449032
 20
181.511401
 30
0.0
  0
VERTEX
  5
270
100
AcDbEntity
  8
EBENE_1
 62
   250
100
AcDbVertex
100
AcDb2dVertex
 10
153.949259
 20
181.011518
 30
0.0
  0
VERTEX
  5
271
100
AcDbEntity
  8
EBENE_1
 62
   250
100
AcDbVertex
100
AcDb2dVertex
 10
154.449143
 20
181.511401
 30
0.0
  0
VERTEX
  5
272
100
AcDbEntity
  8
EBENE_1
 62
   250
100
AcDbVertex
100
AcDb2dVertex
 10
154.949026
 20
181.011518
 30
0.0
  0
VERTEX
  5
273
100
AcDbEntity
  8
EBENE_1
 62
   250
100
AcDbVertex
100
AcDb2dVertex
 10
155.449254
 20
181.511401
 30
0.0
  0
SEQEND
  5
274
100
AcDbEntity
  8
EBENE_1
 62
   250
  0
POLYLINE
  5
25A
100
AcDbEntity
  8
EBENE_1
 62
   250
100
AcDb2dPolyline
 66
     1
 10
0.0
 20
0.0
 30
0.0
 70
     1
  0
VERTEX
  5
25B
100
AcDbEntity
  8
EBENE_1
 62
   250
100
AcDbVertex
100
AcDb2dVertex
 10
145.949059
 20
184.511391
 30
0.0
  0
VERTEX
  5
25C
100
AcDbEntity
  8
EBENE_1
 62
   250
100
AcDbVertex
100
AcDb2dVertex
 10
146.94917
 20
184.511391
 30
0.0
  0
VERTEX
  5
25D
100
AcDbEntity
  8
EBENE_1
 62
   250
100
AcDbVertex
100
AcDb2dVertex
 10
146.94917
 20
192.511419
 30
0.0
  0
VERTEX
  5
25E
100
AcDbEntity
  8
EBENE_1
 62
   250
100
AcDbVertex
100
AcDb2dVertex
 10
145.949059
 20
192.511419
 30
0.0
  0
SEQEND
  5
25F
100
AcDbEntity
  8
EBENE_1
 62
   250
  0
POLYLINE
  5
237
100
AcDbEntity
  8
EBENE_1
 62
   250
100
AcDb2dPolyline
 66
     1
 10
0.0
 20
0.0
 30
0.0
 70
     1
  0
VERTEX
  5
238
100
AcDbEntity
  8
EBENE_1
 62
   250
100
AcDbVertex
100
AcDb2dVertex
 10
269.06747
 20
155.011382
 30
0.0
  0
VERTEX
  5
239
100
AcDbEntity
  8
EBENE_1
 62
   250
100
AcDbVertex
100
AcDb2dVertex
 10
269.06747
 20
145.011304
 30
0.0
  0
VERTEX
  5
23A
100
AcDbEntity
  8
EBENE_1
 62
   250
100
AcDbVertex
100
AcDb2dVertex
 10
243.578931
 20
145.011304
 30
0.0
  0
VERTEX
  5
23B
100
AcDbEntity
  8
EBENE_1
 62
   250
100
AcDbVertex
100
AcDb2dVertex
 10
243.578931
 20
140.011437
 30
0.0
  0
VERTEX
  5
23C
100
AcDbEntity
  8
EBENE_1
 62
   250
100
AcDbVertex
100
AcDb2dVertex
 10
269.06747
 20
140.011437
 30
0.0
  0
VERTEX
  5
23D
100
AcDbEntity
  8
EBENE_1
 62
   250
100
AcDbVertex
100
AcDb2dVertex
 10
269.06747
 20
130.011358
 30
0.0
  0
VERTEX
  5
23E
100
AcDbEntity
  8
EBENE_1
 62
   250
100
AcDbVertex
100
AcDb2dVertex
 10
243.578931
 20
130.011358
 30
0.0
  0
VERTEX
  5
23F
100
AcDbEntity
  8
EBENE_1
 62
   250
100
AcDbVertex
100
AcDb2dVertex
 10
243.578931
 20
125.011491
 30
0.0
  0
VERTEX
  5
240
100
AcDbEntity
  8
EBENE_1
 62
   250
100
AcDbVertex
100
AcDb2dVertex
 10
269.06747
 20
125.011491
 30
0.0
  0
VERTEX
  5
241
100
AcDbEntity
  8
EBENE_1
 62
   250
100
AcDbVertex
100
AcDb2dVertex
 10
269.06747
 20
115.011412
 30
0.0
  0
VERTEX
  5
242
100
AcDbEntity
  8
EBENE_1
 62
   250
100
AcDbVertex
100
AcDb2dVertex
 10
243.578931
 20
115.011412
 30
0.0
  0
VERTEX
  5
243
100
AcDbEntity
  8
EBENE_1
 62
   250
100
AcDbVertex
100
AcDb2dVertex
 10
243.578931
 20
110.011545
 30
0.0
  0
VERTEX
  5
244
100
AcDbEntity
  8
EBENE_1
 62
   250
100
AcDbVertex
100
AcDb2dVertex
 10
269.06747
 20
110.011545
 30
0.0
  0
VERTEX
  5
245
100
AcDbEntity
  8
EBENE_1
 62
   250
100
AcDbVertex
100
AcDb2dVertex
 10
269.06747
 20
100.011466
 30
0.0
  0
VERTEX
  5
246
100
AcDbEntity
  8
EBENE_1
 62
   250
100
AcDbVertex
100
AcDb2dVertex
 10
243.578931
 20
100.011466
 30
0.0
  0
VERTEX
  5
247
100
AcDbEntity
  8
EBENE_1
 62
   250
100
AcDbVertex
100
AcDb2dVertex
 10
243.578931
 20
95.011599
 30
0.0
  0
VERTEX
  5
248
100
AcDbEntity
  8
EBENE_1
 62
   250
100
AcDbVertex
100
AcDb2dVertex
 10
269.06747
 20
95.011599
 30
0.0
  0
VERTEX
  5
249
100
AcDbEntity
  8
EBENE_1
 62
   250
100
AcDbVertex
100
AcDb2dVertex
 10
269.06747
 20
82.511415
 30
0.0
  0
VERTEX
  5
24A
100
AcDbEntity
  8
EBENE_1
 62
   250
100
AcDbVertex
100
AcDb2dVertex
 10
228.493202
 20
82.511415
 30
0.0
  0
VERTEX
  5
24B
100
AcDbEntity
  8
EBENE_1
 62
   250
100
AcDbVertex
100
AcDb2dVertex
 10
228.493202
 20
202.511498
 30
0.0
  0
VERTEX
  5
24C
100
AcDbEntity
  8
EBENE_1
 62
   250
100
AcDbVertex
100
AcDb2dVertex
 10
269.06747
 20
202.511498
 30
0.0
  0
VERTEX
  5
24D
100
AcDbEntity
  8
EBENE_1
 62
   250
100
AcDbVertex
100
AcDb2dVertex
 10
269.06747
 20
190.011485
 30
0.0
  0
VERTEX
  5
24E
100
AcDbEntity
  8
EBENE_1
 62
   250
100
AcDbVertex
100
AcDb2dVertex
 10
243.578931
 20
190.011485
 30
0.0
  0
VERTEX
  5
24F
100
AcDbEntity
  8
EBENE_1
 62
   250
100
AcDbVertex
100
AcDb2dVertex
 10
243.578931
 20
185.011446
 30
0.0
  0
VERTEX
  5
250
100
AcDbEntity
  8
EBENE_1
 62
   250
100
AcDbVertex
100
AcDb2dVertex
 10
269.06747
 20
185.011446
 30
0.0
  0
VERTEX
  5
251
100
AcDbEntity
  8
EBENE_1
 62
   250
100
AcDbVertex
100
AcDb2dVertex
 10
269.06747
 20
175.01154
 30
0.0
  0
VERTEX
  5
252
100
AcDbEntity
  8
EBENE_1
 62
   250
100
AcDbVertex
100
AcDb2dVertex
 10
243.578931
 20
175.01154
 30
0.0
  0
VERTEX
  5
253
100
AcDbEntity
  8
EBENE_1
 62
   250
100
AcDbVertex
100
AcDb2dVertex
 10
243.578931
 20
170.0115
 30
0.0
  0
VERTEX
  5
254
100
AcDbEntity
  8
EBENE_1
 62
   250
100
AcDbVertex
100
AcDb2dVertex
 10
269.06747
 20
170.0115
 30
0.0
  0
VERTEX
  5
255
100
AcDbEntity
  8
EBENE_1
 62
   250
100
AcDbVertex
100
AcDb2dVertex
 10
269.06747
 20
160.011594
 30
0.0
  0
VERTEX
  5
256
100
AcDbEntity
  8
EBENE_1
 62
   250
100
AcDbVertex
100
AcDb2dVertex
 10
243.578931
 20
160.011594
 30
0.0
  0
VERTEX
  5
257
100
AcDbEntity
  8
EBENE_1
 62
   250
100
AcDbVertex
100
AcDb2dVertex
 10
243.578931
 20
155.011382
 30
0.0
  0
VERTEX
  5
258
100
AcDbEntity
  8
EBENE_1
 62
   250
100
AcDbVertex
100
AcDb2dVertex
 10
269.06747
 20
155.011382
 30
0.0
  0
SEQEND
  5
259
100
AcDbEntity
  8
EBENE_1
 62
   250
  0
POLYLINE
  5
231
100
AcDbEntity
  8
EBENE_1
 62
   250
100
AcDb2dPolyline
 66
     1
 10
0.0
 20
0.0
 30
0.0
 70
     1
  0
VERTEX
  5
232
100
AcDbEntity
  8
EBENE_1
 62
   250
100
AcDbVertex
100
AcDb2dVertex
 10
156.949249
 20
82.511415
 30
0.0
  0
VERTEX
  5
233
100
AcDbEntity
  8
EBENE_1
 62
   250
100
AcDbVertex
100
AcDb2dVertex
 10
161.449232
 20
82.511415
 30
0.0
  0
VERTEX
  5
234
100
AcDbEntity
  8
EBENE_1
 62
   250
100
AcDbVertex
100
AcDb2dVertex
 10
161.449232
 20
202.511498
 30
0.0
  0
VERTEX
  5
235
100
AcDbEntity
  8
EBENE_1
 62
   250
100
AcDbVertex
100
AcDb2dVertex
 10
156.949249
 20
202.511498
 30
0.0
  0
SEQEND
  5
236
100
AcDbEntity
  8
EBENE_1
 62
   250
  0
POLYLINE
  5
22B
100
AcDbEntity
  8
EBENE_1
 62
   250
100
AcDb2dPolyline
 66
     1
 10
0.0
 20
0.0
 30
0.0
 70
     1
  0
VERTEX
  5
22C
100
AcDbEntity
  8
EBENE_1
 62
   250
100
AcDbVertex
100
AcDb2dVertex
 10
157.064315
 20
82.511415
 30
0.0
  0
VERTEX
  5
22D
100
AcDbEntity
  8
EBENE_1
 62
   250
100
AcDbVertex
100
AcDb2dVertex
 10
228.336106
 20
82.511415
 30
0.0
  0
VERTEX
  5
22E
100
AcDbEntity
  8
EBENE_1
 62
   250
100
AcDbVertex
100
AcDb2dVertex
 10
228.336106
 20
202.511498
 30
0.0
  0
VERTEX
  5
22F
100
AcDbEntity
  8
EBENE_1
 62
   250
100
AcDbVertex
100
AcDb2dVertex
 10
157.064315
 20
202.511498
 30
0.0
  0
SEQEND
  5
230
100
AcDbEntity
  8
EBENE_1
 62
   250
  0
POLYLINE
  5
224
100
AcDbEntity
  8
EBENE_1
 62
   250
100
AcDb2dPolyline
 66
     1
 10
0.0
 20
0.0
 30
0.0
 70
     1
  0
VERTEX
  5
225
100
AcDbEntity
  8
EBENE_1
 62
   250
100
AcDbVertex
100
AcDb2dVertex
 10
156.949249
 20
131.511353
 30
0.0
  0
VERTEX
  5
226
100
AcDbEntity
  8
EBENE_1
 62
   250
100
AcDbVertex
100
AcDb2dVertex
 10
126.949013
 20
131.511353
 30
0.0
  0
VERTEX
  5
227
100
AcDbEntity
  8
EBENE_1
 62
   250
100
AcDbVertex
100
AcDb2dVertex
 10
126.949013
 20
137.511331
 30
0.0
  0
VERTEX
  5
228
100
AcDbEntity
  8
EBENE_1
 62
   250
100
AcDbVertex
100
AcDb2dVertex
 10
156.949249
 20
137.511331
 30
0.0
  0
VERTEX
  5
229
100
AcDbEntity
  8
EBENE_1
 62
   250
100
AcDbVertex
100
AcDb2dVertex
 10
156.949249
 20
131.511353
 30
0.0
  0
SEQEND
  5
22A
100
AcDbEntity
  8
EBENE_1
 62
   250
  0
POLYLINE
  5
21D
100
AcDbEntity
  8
EBENE_1
 62
   250
100
AcDb2dPolyline
 66
     1
 10
0.0
 20
0.0
 30
0.0
 70
     1
  0
VERTEX
  5
21E
100
AcDbEntity
  8
EBENE_1
 62
   250
100
AcDbVertex
100
AcDb2dVertex
 10
156.949249
 20
148.511176
 30
0.0
  0
VERTEX
  5
21F
100
AcDbEntity
  8
EBENE_1
 62
   250
100
AcDbVertex
100
AcDb2dVertex
 10
126.949013
 20
148.511176
 30
0.0
  0
VERTEX
  5
220
100
AcDbEntity
  8
EBENE_1
 62
   250
100
AcDbVertex
100
AcDb2dVertex
 10
126.949013
 20
156.511377
 30
0.0
  0
VERTEX
  5
221
100
AcDbEntity
  8
EBENE_1
 62
   250
100
AcDbVertex
100
AcDb2dVertex
 10
156.949249
 20
156.511377
 30
0.0
  0
VERTEX
  5
222
100
AcDbEntity
  8
EBENE_1
 62
   250
100
AcDbVertex
100
AcDb2dVertex
 10
156.949249
 20
148.511176
 30
0.0
  0
SEQEND
  5
223
100
AcDbEntity
  8
EBENE_1
 62
   250
  0
POLYLINE
  5
217
100
AcDbEntity
  8
EBENE_1
 62
   250
100
AcDb2dPolyline
 66
     1
 10
0.0
 20
0.0
 30
0.0
 70
     1
  0
VERTEX
  5
218
100
AcDbEntity
  8
EBENE_1
 62
   250
100
AcDbVertex
100
AcDb2dVertex
 10
6.020132
 20
131.511353
 30
0.0
  0
VERTEX
  5
219
100
AcDbEntity
  8
EBENE_1
 62
   250
100
AcDbVertex
100
AcDb2dVertex
 10
127.027216
 20
131.511353
 30
0.0
  0
VERTEX
  5
21A
100
AcDbEntity
  8
EBENE_1
 62
   250
100
AcDbVertex
100
AcDb2dVertex
 10
127.027216
 20
137.511331
 30
0.0
  0
VERTEX
  5
21B
100
AcDbEntity
  8
EBENE_1
 62
   250
100
AcDbVertex
100
AcDb2dVertex
 10
6.020132
 20
137.511331
 30
0.0
  0
SEQEND
  5
21C
100
AcDbEntity
  8
EBENE_1
 62
   250
  0
POLYLINE
  5
206
100
AcDbEntity
  8
EBENE_1
 62
   250
100
AcDb2dPolyline
 66
     1
 10
0.0
 20
0.0
 30
0.0
 70
     1
  0
VERTEX
  5
207
100
AcDbEntity
  8
EBENE_1
 62
   250
100
AcDbVertex
100
AcDb2dVertex
 10
53.94899
 20
148.511176
 30
0.0
  0
VERTEX
  5
208
100
AcDbEntity
  8
EBENE_1
 62
   250
100
AcDbVertex
100
AcDb2dVertex
 10
53.94899
 20
147.51141
 30
0.0
  0
VERTEX
  5
209
100
AcDbEntity
  8
EBENE_1
 62
   250
100
AcDbVertex
100
AcDb2dVertex
 10
53.721096
 20
146.265318
 30
0.0
  0
VERTEX
  5
20A
100
AcDbEntity
  8
EBENE_1
 62
   250
100
AcDbVertex
100
AcDb2dVertex
 10
53.140081
 20
144.632343
 30
0.0
  0
VERTEX
  5
20B
100
AcDbEntity
  8
EBENE_1
 62
   250
100
AcDbVertex
100
AcDb2dVertex
 10
52.611087
 20
143.616385
 30
0.0
  0
VERTEX
  5
20C
100
AcDbEntity
  8
EBENE_1
 62
   250
100
AcDbVertex
100
AcDb2dVertex
 10
51.87108
 20
142.531179
 30
0.0
  0
VERTEX
  5
20D
100
AcDbEntity
  8
EBENE_1
 62
   250
100
AcDbVertex
100
AcDb2dVertex
 10
50.994992
 20
141.54416
 30
0.0
  0
VERTEX
  5
20E
100
AcDbEntity
  8
EBENE_1
 62
   250
100
AcDbVertex
100
AcDb2dVertex
 10
50.449117
 20
141.011203
 30
0.0
  0
VERTEX
  5
20F
100
AcDbEntity
  8
EBENE_1
 62
   250
100
AcDbVertex
100
AcDb2dVertex
 10
49.943032
 20
140.608127
 30
0.0
  0
VERTEX
  5
210
100
AcDbEntity
  8
EBENE_1
 62
   250
100
AcDbVertex
100
AcDb2dVertex
 10
49.347031
 20
140.256383
 30
0.0
  0
VERTEX
  5
211
100
AcDbEntity
  8
EBENE_1
 62
   250
100
AcDbVertex
100
AcDb2dVertex
 10
48.463019
 20
140.068281
 30
0.0
  0
VERTEX
  5
212
100
AcDbEntity
  8
EBENE_1
 62
   250
100
AcDbVertex
100
AcDb2dVertex
 10
47.449128
 20
140.011092
 30
0.0
  0
VERTEX
  5
213
100
AcDbEntity
  8
EBENE_1
 62
   250
100
AcDbVertex
100
AcDb2dVertex
 10
47.449128
 20
156.511377
 30
0.0
  0
VERTEX
  5
214
100
AcDbEntity
  8
EBENE_1
 62
   250
100
AcDbVertex
100
AcDb2dVertex
 10
53.94899
 20
156.511377
 30
0.0
  0
VERTEX
  5
215
100
AcDbEntity
  8
EBENE_1
 62
   250
100
AcDbVertex
100
AcDb2dVertex
 10
53.94899
 20
148.511176
 30
0.0
  0
SEQEND
  5
216
100
AcDbEntity
  8
EBENE_1
 62
   250
  0
POLYLINE
  5
200
100
AcDbEntity
  8
EBENE_1
 62
   250
100
AcDb2dPolyline
 66
     1
 10
0.0
 20
0.0
 30
0.0
 70
     1
  0
VERTEX
  5
201
100
AcDbEntity
  8
EBENE_1
 62
   250
100
AcDbVertex
100
AcDb2dVertex
 10
5.853562
 20
140.011092
 30
0.0
  0
VERTEX
  5
202
100
AcDbEntity
  8
EBENE_1
 62
   250
100
AcDbVertex
100
AcDb2dVertex
 10
47.347498
 20
140.011092
 30
0.0
  0
VERTEX
  5
203
100
AcDbEntity
  8
EBENE_1
 62
   250
100
AcDbVertex
100
AcDb2dVertex
 10
47.347498
 20
156.511377
 30
0.0
  0
VERTEX
  5
204
100
AcDbEntity
  8
EBENE_1
 62
   250
100
AcDbVertex
100
AcDb2dVertex
 10
5.853562
 20
156.511377
 30
0.0
  0
SEQEND
  5
205
100
AcDbEntity
  8
EBENE_1
 62
   250
  0
POLYLINE
  5
1F9
100
AcDbEntity
  8
EBENE_1
 62
   250
100
AcDb2dPolyline
 66
     1
 10
0.0
 20
0.0
 30
0.0
 70
     1
  0
VERTEX
  5
1FA
100
AcDbEntity
  8
EBENE_1
 62
   250
100
AcDbVertex
100
AcDb2dVertex
 10
127.232888
 20
148.511176
 30
0.0
  0
VERTEX
  5
1FB
100
AcDbEntity
  8
EBENE_1
 62
   250
100
AcDbVertex
100
AcDb2dVertex
 10
54.067501
 20
148.511176
 30
0.0
  0
VERTEX
  5
1FC
100
AcDbEntity
  8
EBENE_1
 62
   250
100
AcDbVertex
100
AcDb2dVertex
 10
54.067501
 20
156.511377
 30
0.0
  0
VERTEX
  5
1FD
100
AcDbEntity
  8
EBENE_1
 62
   250
100
AcDbVertex
100
AcDb2dVertex
 10
127.232888
 20
156.511377
 30
0.0
  0
VERTEX
  5
1FE
100
AcDbEntity
  8
EBENE_1
 62
   250
100
AcDbVertex
100
AcDb2dVertex
 10
127.232888
 20
148.511176
 30
0.0
  0
SEQEND
  5
1FF
100
AcDbEntity
  8
EBENE_1
 62
   250
  0
POLYLINE
  5
1F2
100
AcDbEntity
  8
EBENE_1
 62
   250
100
AcDb2dPolyline
 66
     1
 10
0.0
 20
0.0
 30
0.0
 70
     1
  0
VERTEX
  5
1F3
100
AcDbEntity
  8
EBENE_1
 62
   250
100
AcDbVertex
100
AcDb2dVertex
 10
156.949249
 20
107.511095
 30
0.0
  0
VERTEX
  5
1F4
100
AcDbEntity
  8
EBENE_1
 62
   250
100
AcDbVertex
100
AcDb2dVertex
 10
126.949013
 20
107.511095
 30
0.0
  0
VERTEX
  5
1F5
100
AcDbEntity
  8
EBENE_1
 62
   250
100
AcDbVertex
100
AcDb2dVertex
 10
126.949013
 20
101.511117
 30
0.0
  0
VERTEX
  5
1F6
100
AcDbEntity
  8
EBENE_1
 62
   250
100
AcDbVertex
100
AcDb2dVertex
 10
156.949249
 20
101.511117
 30
0.0
  0
VERTEX
  5
1F7
100
AcDbEntity
  8
EBENE_1
 62
   250
100
AcDbVertex
100
AcDb2dVertex
 10
156.949249
 20
107.511095
 30
0.0
  0
SEQEND
  5
1F8
100
AcDbEntity
  8
EBENE_1
 62
   250
  0
POLYLINE
  5
1EB
100
AcDbEntity
  8
EBENE_1
 62
   250
100
AcDb2dPolyline
 66
     1
 10
0.0
 20
0.0
 30
0.0
 70
     1
  0
VERTEX
  5
1EC
100
AcDbEntity
  8
EBENE_1
 62
   250
100
AcDbVertex
100
AcDb2dVertex
 10
156.949249
 20
90.511271
 30
0.0
  0
VERTEX
  5
1ED
100
AcDbEntity
  8
EBENE_1
 62
   250
100
AcDbVertex
100
AcDb2dVertex
 10
126.949013
 20
90.511271
 30
0.0
  0
VERTEX
  5
1EE
100
AcDbEntity
  8
EBENE_1
 62
   250
100
AcDbVertex
100
AcDb2dVertex
 10
126.949013
 20
82.51107
 30
0.0
  0
VERTEX
  5
1EF
100
AcDbEntity
  8
EBENE_1
 62
   250
100
AcDbVertex
100
AcDb2dVertex
 10
156.949249
 20
82.51107
 30
0.0
  0
VERTEX
  5
1F0
100
AcDbEntity
  8
EBENE_1
 62
   250
100
AcDbVertex
100
AcDb2dVertex
 10
156.949249
 20
90.511271
 30
0.0
  0
SEQEND
  5
1F1
100
AcDbEntity
  8
EBENE_1
 62
   250
  0
POLYLINE
  5
1E5
100
AcDbEntity
  8
EBENE_1
 62
   250
100
AcDb2dPolyline
 66
     1
 10
0.0
 20
0.0
 30
0.0
 70
     1
  0
VERTEX
  5
1E6
100
AcDbEntity
  8
EBENE_1
 62
   250
100
AcDbVertex
100
AcDb2dVertex
 10
5.972762
 20
101.511117
 30
0.0
  0
VERTEX
  5
1E7
100
AcDbEntity
  8
EBENE_1
 62
   250
100
AcDbVertex
100
AcDb2dVertex
 10
127.027561
 20
101.511117
 30
0.0
  0
VERTEX
  5
1E8
100
AcDbEntity
  8
EBENE_1
 62
   250
100
AcDbVertex
100
AcDb2dVertex
 10
127.027561
 20
107.511095
 30
0.0
  0
VERTEX
  5
1E9
100
AcDbEntity
  8
EBENE_1
 62
   250
100
AcDbVertex
100
AcDb2dVertex
 10
5.972762
 20
107.511095
 30
0.0
  0
SEQEND
  5
1EA
100
AcDbEntity
  8
EBENE_1
 62
   250
  0
POLYLINE
  5
1D4
100
AcDbEntity
  8
EBENE_1
 62
   250
100
AcDb2dPolyline
 66
     1
 10
0.0
 20
0.0
 30
0.0
 70
     1
  0
VERTEX
  5
1D5
100
AcDbEntity
  8
EBENE_1
 62
   250
100
AcDbVertex
100
AcDb2dVertex
 10
53.94899
 20
90.511271
 30
0.0
  0
VERTEX
  5
1D6
100
AcDbEntity
  8
EBENE_1
 62
   250
100
AcDbVertex
100
AcDb2dVertex
 10
53.94899
 20
91.511382
 30
0.0
  0
VERTEX
  5
1D7
100
AcDbEntity
  8
EBENE_1
 62
   250
100
AcDbVertex
100
AcDb2dVertex
 10
53.721096
 20
92.757129
 30
0.0
  0
VERTEX
  5
1D8
100
AcDbEntity
  8
EBENE_1
 62
   250
100
AcDbVertex
100
AcDb2dVertex
 10
53.140081
 20
94.390104
 30
0.0
  0
VERTEX
  5
1D9
100
AcDbEntity
  8
EBENE_1
 62
   250
100
AcDbVertex
100
AcDb2dVertex
 10
52.611087
 20
95.406407
 30
0.0
  0
VERTEX
  5
1DA
100
AcDbEntity
  8
EBENE_1
 62
   250
100
AcDbVertex
100
AcDb2dVertex
 10
51.87108
 20
96.491268
 30
0.0
  0
VERTEX
  5
1DB
100
AcDbEntity
  8
EBENE_1
 62
   250
100
AcDbVertex
100
AcDb2dVertex
 10
50.994992
 20
97.478288
 30
0.0
  0
VERTEX
  5
1DC
100
AcDbEntity
  8
EBENE_1
 62
   250
100
AcDbVertex
100
AcDb2dVertex
 10
50.449117
 20
98.011244
 30
0.0
  0
VERTEX
  5
1DD
100
AcDbEntity
  8
EBENE_1
 62
   250
100
AcDbVertex
100
AcDb2dVertex
 10
49.943032
 20
98.41432
 30
0.0
  0
VERTEX
  5
1DE
100
AcDbEntity
  8
EBENE_1
 62
   250
100
AcDbVertex
100
AcDb2dVertex
 10
49.347031
 20
98.766064
 30
0.0
  0
VERTEX
  5
1DF
100
AcDbEntity
  8
EBENE_1
 62
   250
100
AcDbVertex
100
AcDb2dVertex
 10
48.463019
 20
98.954167
 30
0.0
  0
VERTEX
  5
1E0
100
AcDbEntity
  8
EBENE_1
 62
   250
100
AcDbVertex
100
AcDb2dVertex
 10
47.449128
 20
99.011355
 30
0.0
  0
VERTEX
  5
1E1
100
AcDbEntity
  8
EBENE_1
 62
   250
100
AcDbVertex
100
AcDb2dVertex
 10
47.449128
 20
82.51107
 30
0.0
  0
VERTEX
  5
1E2
100
AcDbEntity
  8
EBENE_1
 62
   250
100
AcDbVertex
100
AcDb2dVertex
 10
53.94899
 20
82.51107
 30
0.0
  0
VERTEX
  5
1E3
100
AcDbEntity
  8
EBENE_1
 62
   250
100
AcDbVertex
100
AcDb2dVertex
 10
53.94899
 20
90.511271
 30
0.0
  0
SEQEND
  5
1E4
100
AcDbEntity
  8
EBENE_1
 62
   250
  0
POLYLINE
  5
1CE
100
AcDbEntity
  8
EBENE_1
 62
   250
100
AcDb2dPolyline
 66
     1
 10
0.0
 20
0.0
 30
0.0
 70
     1
  0
VERTEX
  5
1CF
100
AcDbEntity
  8
EBENE_1
 62
   250
100
AcDbVertex
100
AcDb2dVertex
 10
5.97259
 20
82.51107
 30
0.0
  0
VERTEX
  5
1D0
100
AcDbEntity
  8
EBENE_1
 62
   250
100
AcDbVertex
100
AcDb2dVertex
 10
47.347498
 20
82.51107
 30
0.0
  0
VERTEX
  5
1D1
100
AcDbEntity
  8
EBENE_1
 62
   250
100
AcDbVertex
100
AcDb2dVertex
 10
47.347498
 20
99.011355
 30
0.0
  0
VERTEX
  5
1D2
100
AcDbEntity
  8
EBENE_1
 62
   250
100
AcDbVertex
100
AcDb2dVertex
 10
5.97259
 20
99.011355
 30
0.0
  0
SEQEND
  5
1D3
100
AcDbEntity
  8
EBENE_1
 62
   250
  0
POLYLINE
  5
1C7
100
AcDbEntity
  8
EBENE_1
 62
   250
100
AcDb2dPolyline
 66
     1
 10
0.0
 20
0.0
 30
0.0
 70
     1
  0
VERTEX
  5
1C8
100
AcDbEntity
  8
EBENE_1
 62
   250
100
AcDbVertex
100
AcDb2dVertex
 10
127.025494
 20
90.511271
 30
0.0
  0
VERTEX
  5
1C9
100
AcDbEntity
  8
EBENE_1
 62
   250
100
AcDbVertex
100
AcDb2dVertex
 10
53.973622
 20
90.511271
 30
0.0
  0
VERTEX
  5
1CA
100
AcDbEntity
  8
EBENE_1
 62
   250
100
AcDbVertex
100
AcDb2dVertex
 10
53.973622
 20
82.51107
 30
0.0
  0
VERTEX
  5
1CB
100
AcDbEntity
  8
EBENE_1
 62
   250
100
AcDbVertex
100
AcDb2dVertex
 10
127.025494
 20
82.51107
 30
0.0
  0
VERTEX
  5
1CC
100
AcDbEntity
  8
EBENE_1
 62
   250
100
AcDbVertex
100
AcDb2dVertex
 10
127.025494
 20
90.511271
 30
0.0
  0
SEQEND
  5
1CD
100
AcDbEntity
  8
EBENE_1
 62
   250
  0
POLYLINE
  5
1C1
100
AcDbEntity
  8
EBENE_1
 62
   250
100
AcDb2dPolyline
 66
     1
 10
0.0
 20
0.0
 30
0.0
 70
     1
  0
VERTEX
  5
1C2
100
AcDbEntity
  8
EBENE_1
 62
   250
100
AcDbVertex
100
AcDb2dVertex
 10
-35.05109
 20
112.511306
 30
0.0
  0
VERTEX
  5
1C3
100
AcDbEntity
  8
EBENE_1
 62
   250
100
AcDbVertex
100
AcDb2dVertex
 10
-8.051016
 20
112.511306
 30
0.0
  0
VERTEX
  5
1C4
100
AcDbEntity
  8
EBENE_1
 62
   250
100
AcDbVertex
100
AcDb2dVertex
 10
-8.051016
 20
126.511141
 30
0.0
  0
VERTEX
  5
1C5
100
AcDbEntity
  8
EBENE_1
 62
   250
100
AcDbVertex
100
AcDb2dVertex
 10
-35.05109
 20
126.511141
 30
0.0
  0
SEQEND
  5
1C6
100
AcDbEntity
  8
EBENE_1
 62
   250
  0
POLYLINE
  5
1BB
100
AcDbEntity
  8
EBENE_1
 62
   250
100
AcDb2dPolyline
 66
     1
 10
0.0
 20
0.0
 30
0.0
 70
     1
  0
VERTEX
  5
1BC
100
AcDbEntity
  8
EBENE_1
 62
   250
100
AcDbVertex
100
AcDb2dVertex
 10
-8.051016
 20
79.511081
 30
0.0
  0
VERTEX
  5
1BD
100
AcDbEntity
  8
EBENE_1
 62
   250
100
AcDbVertex
100
AcDb2dVertex
 10
-5.051027
 20
79.511081
 30
0.0
  0
VERTEX
  5
1BE
100
AcDbEntity
  8
EBENE_1
 62
   250
100
AcDbVertex
100
AcDb2dVertex
 10
-5.051027
 20
159.511366
 30
0.0
  0
VERTEX
  5
1BF
100
AcDbEntity
  8
EBENE_1
 62
   250
100
AcDbVertex
100
AcDb2dVertex
 10
-8.051016
 20
159.511366
 30
0.0
  0
SEQEND
  5
1C0
100
AcDbEntity
  8
EBENE_1
 62
   250
  0
POLYLINE
  5
1B5
100
AcDbEntity
  8
EBENE_1
 62
   250
100
AcDb2dPolyline
 66
     1
 10
0.0
 20
0.0
 30
0.0
 70
     1
  0
VERTEX
  5
1B6
100
AcDbEntity
  8
EBENE_1
 62
   250
100
AcDbVertex
100
AcDb2dVertex
 10
-5.051027
 20
76.16486
 30
0.0
  0
VERTEX
  5
1B7
100
AcDbEntity
  8
EBENE_1
 62
   250
100
AcDbVertex
100
AcDb2dVertex
 10
5.948991
 20
76.16486
 30
0.0
  0
VERTEX
  5
1B8
100
AcDbEntity
  8
EBENE_1
 62
   250
100
AcDbVertex
100
AcDb2dVertex
 10
5.948991
 20
162.579568
 30
0.0
  0
VERTEX
  5
1B9
100
AcDbEntity
  8
EBENE_1
 62
   250
100
AcDbVertex
100
AcDb2dVertex
 10
-5.051027
 20
162.579568
 30
0.0
  0
SEQEND
  5
1BA
100
AcDbEntity
  8
EBENE_1
 62
   250
  0
POLYLINE
  5
1AF
100
AcDbEntity
  8
EBENE_1
 62
   250
100
AcDb2dPolyline
 66
     1
 10
0.0
 20
0.0
 30
0.0
 70
     1
  0
VERTEX
  5
1B0
100
AcDbEntity
  8
EBENE_1
 62
   250
100
AcDbVertex
100
AcDb2dVertex
 10
5.967422
 20
82.51107
 30
0.0
  0
VERTEX
  5
1B1
100
AcDbEntity
  8
EBENE_1
 62
   250
100
AcDbVertex
100
AcDb2dVertex
 10
127.131258
 20
82.51107
 30
0.0
  0
VERTEX
  5
1B2
100
AcDbEntity
  8
EBENE_1
 62
   250
100
AcDbVertex
100
AcDb2dVertex
 10
127.131258
 20
156.511377
 30
0.0
  0
VERTEX
  5
1B3
100
AcDbEntity
  8
EBENE_1
 62
   250
100
AcDbVertex
100
AcDb2dVertex
 10
5.967422
 20
156.511377
 30
0.0
  0
SEQEND
  5
1B4
100
AcDbEntity
  8
EBENE_1
 62
   250
  0
POLYLINE
  5
1A9
100
AcDbEntity
  8
EBENE_1
 62
   250
100
AcDb2dPolyline
 66
     1
 10
0.0
 20
0.0
 30
0.0
 70
     1
  0
VERTEX
  5
1AA
100
AcDbEntity
  8
EBENE_1
 62
   250
100
AcDbVertex
100
AcDb2dVertex
 10
126.949013
 20
82.51107
 30
0.0
  0
VERTEX
  5
1AB
100
AcDbEntity
  8
EBENE_1
 62
   250
100
AcDbVertex
100
AcDb2dVertex
 10
156.949249
 20
82.51107
 30
0.0
  0
VERTEX
  5
1AC
100
AcDbEntity
  8
EBENE_1
 62
   250
100
AcDbVertex
100
AcDb2dVertex
 10
156.949249
 20
156.511377
 30
0.0
  0
VERTEX
  5
1AD
100
AcDbEntity
  8
EBENE_1
 62
   250
100
AcDbVertex
100
AcDb2dVertex
 10
126.949013
 20
156.511377
 30
0.0
  0
SEQEND
  5
1AE
100
AcDbEntity
  8
EBENE_1
 62
   250
  0
MTEXT
  5
1A8
100
AcDbEntity
  8
EBENE_1
 62
   250
100
AcDbMText
 10
-26.872778
 20
175.261271
 30
0.0
 40
3.500007
 41
0.0
 71
     1
 72
     2
  1
\fMyriad Roman|b0|i0; 3.0 
  7
STD
210
0.0
220
0.0
230
1.0
 11
1.000001
 21
0.0
 31
0.0
 73
     1
 44
1.0
  0
POLYLINE
  5
1A3
100
AcDbEntity
  8
EBENE_1
 62
   250
100
AcDb2dPolyline
 66
     1
 10
0.0
 20
0.0
 30
0.0
 70
     1
  0
VERTEX
  5
1A4
100
AcDbEntity
  8
EBENE_1
 62
   250
100
AcDbVertex
100
AcDb2dVertex
 10
-4.983158
 20
173.511201
 30
0.0
  0
VERTEX
  5
1A5
100
AcDbEntity
  8
EBENE_1
 62
   250
100
AcDbVertex
100
AcDb2dVertex
 10
-0.982197
 20
174.508211
 30
0.0
  0
VERTEX
  5
1A6
100
AcDbEntity
  8
EBENE_1
 62
   250
100
AcDbVertex
100
AcDb2dVertex
 10
-0.982197
 20
172.51419
 30
0.0
  0
SEQEND
  5
1A7
100
AcDbEntity
  8
EBENE_1
 62
   250
  0
HATCH
  5
1A2
100
AcDbEntity
  8
EBENE_1
 62
   250
100
AcDbHatch
 10
0.0
 20
0.0
 30
0.0
210
0.0
220
0.0
230
1.0
  2
SOLID
 70
     1
 71
     0
 91
        1
 92
        3
 72
     0
 73
     1
 93
        3
 10
-4.9831583658854166
 20
173.51120062934027
 10
-0.9821967230902777
 20
174.50821126302083
 10
-0.9821967230902777
 20
172.51418999565971
 97
        0
 75
     0
 76
     1
 98
        1
 10
0.0
 20
0.0
  0
LINE
  5
1A1
100
AcDbEntity
  8
EBENE_1
 62
   250
100
AcDbLine
 10
3.861608
 20
173.511201
 30
0.0
 11
-4.138421
 21
173.511201
 31
0.0
  0
POLYLINE
  5
19C
100
AcDbEntity
  8
EBENE_1
 62
   250
100
AcDb2dPolyline
 66
     1
 10
0.0
 20
0.0
 30
0.0
 70
     1
  0
VERTEX
  5
19D
100
AcDbEntity
  8
EBENE_1
 62
   250
100
AcDbVertex
100
AcDb2dVertex
 10
-8.152474
 20
173.422317
 30
0.0
  0
VERTEX
  5
19E
100
AcDbEntity
  8
EBENE_1
 62
   250
100
AcDbVertex
100
AcDb2dVertex
 10
-12.153436
 20
172.425307
 30
0.0
  0
VERTEX
  5
19F
100
AcDbEntity
  8
EBENE_1
 62
   250
100
AcDbVertex
100
AcDb2dVertex
 10
-12.153436
 20
174.419328
 30
0.0
  0
SEQEND
  5
1A0
100
AcDbEntity
  8
EBENE_1
 62
   250
  0
HATCH
  5
19B
100
AcDbEntity
  8
EBENE_1
 62
   250
100
AcDbHatch
 10
0.0
 20
0.0
 30
0.0
210
0.0
220
0.0
230
1.0
  2
SOLID
 70
     1
 71
     0
 91
        1
 92
        3
 72
     0
 73
     1
 93
        3
 10
-8.1524739583333332
 20
173.4223171657986
 10
-12.153435601128471
 20
172.42530653211804
 10
-12.153435601128471
 20
174.41932779947916
 97
        0
 75
     0
 76
     1
 98
        1
 10
0.0
 20
0.0
  0
LINE
  5
19A
100
AcDbEntity
  8
EBENE_1
 62
   250
100
AcDbLine
 10
-17.263718
 20
173.333261
 30
0.0
 11
-9.263862
 21
173.333261
 31
0.0
  0
LINE
  5
199
100
AcDbEntity
  8
EBENE_1
 62
   250
100
AcDbLine
 10
-8.051016
 20
159.511366
 30
0.0
 11
-8.051016
 21
173.511201
 31
0.0
  0
MTEXT
  5
198
100
AcDbEntity
  8
EBENE_1
 62
   250
100
AcDbMText
 10
-24.872728
 20
186.761172
 30
0.0
 40
3.500007
 41
0.0
 71
     1
 72
     2
  1
\fMyriad Roman|b0|i0; 30.0 
  7
STD
210
0.0
220
0.0
230
1.0
 11
1.000001
 21
0.0
 31
0.0
 73
     1
 44
1.0
  0
POLYLINE
  5
193
100
AcDbEntity
  8
EBENE_1
 62
   250
100
AcDb2dPolyline
 66
     1
 10
0.0
 20
0.0
 30
0.0
 70
     1
  0
VERTEX
  5
194
100
AcDbEntity
  8
EBENE_1
 62
   250
100
AcDbVertex
100
AcDb2dVertex
 10
-5.051027
 20
185.011274
 30
0.0
  0
VERTEX
  5
195
100
AcDbEntity
  8
EBENE_1
 62
   250
100
AcDbVertex
100
AcDb2dVertex
 10
-9.051988
 20
184.014263
 30
0.0
  0
VERTEX
  5
196
100
AcDbEntity
  8
EBENE_1
 62
   250
100
AcDbVertex
100
AcDb2dVertex
 10
-9.051988
 20
186.008285
 30
0.0
  0
SEQEND
  5
197
100
AcDbEntity
  8
EBENE_1
 62
   250
  0
HATCH
  5
192
100
AcDbEntity
  8
EBENE_1
 62
   250
100
AcDbHatch
 10
0.0
 20
0.0
 30
0.0
210
0.0
220
0.0
230
1.0
  2
SOLID
 70
     1
 71
     0
 91
        1
 92
        3
 72
     0
 73
     1
 93
        3
 10
-5.0510267469618055
 20
185.01127387152775
 10
-9.0519883897569429
 20
184.01426323784722
 10
-9.0519883897569429
 20
186.00828450520831
 97
        0
 75
     0
 76
     1
 98
        1
 10
0.0
 20
0.0
  0
LINE
  5
191
100
AcDbEntity
  8
EBENE_1
 62
   250
100
AcDbLine
 10
-9.050955
 20
185.011274
 30
0.0
 11
-5.051027
 21
185.011274
 31
0.0
  0
POLYLINE
  5
18C
100
AcDbEntity
  8
EBENE_1
 62
   250
100
AcDb2dPolyline
 66
     1
 10
0.0
 20
0.0
 30
0.0
 70
     1
  0
VERTEX
  5
18D
100
AcDbEntity
  8
EBENE_1
 62
   250
100
AcDbVertex
100
AcDb2dVertex
 10
-35.05109
 20
185.011274
 30
0.0
  0
VERTEX
  5
18E
100
AcDbEntity
  8
EBENE_1
 62
   250
100
AcDbVertex
100
AcDb2dVertex
 10
-31.049957
 20
186.008285
 30
0.0
  0
VERTEX
  5
18F
100
AcDbEntity
  8
EBENE_1
 62
   250
100
AcDbVertex
100
AcDb2dVertex
 10
-31.049957
 20
184.014263
 30
0.0
  0
SEQEND
  5
190
100
AcDbEntity
  8
EBENE_1
 62
   250
  0
HATCH
  5
18B
100
AcDbEntity
  8
EBENE_1
 62
   250
100
AcDbHatch
 10
0.0
 20
0.0
 30
0.0
210
0.0
220
0.0
230
1.0
  2
SOLID
 70
     1
 71
     0
 91
        1
 92
        3
 72
     0
 73
     1
 93
        3
 10
-35.051090494791666
 20
185.01127387152775
 10
-31.04995659722222
 20
186.00828450520831
 10
-31.04995659722222
 20
184.01426323784722
 97
        0
 75
     0
 76
     1
 98
        1
 10
0.0
 20
0.0
  0
LINE
  5
18A
100
AcDbEntity
  8
EBENE_1
 62
   250
100
AcDbLine
 10
-30.051051
 20
185.011274
 30
0.0
 11
-35.05109
 21
185.011274
 31
0.0
  0
MTEXT
  5
189
100
AcDbEntity
  8
EBENE_1
 62
   250
100
AcDbMText
 10
-27.324086
 20
72.562458
 30
0.0
 40
3.500007
 41
0.0
 71
     1
 72
     2
  1
\fMyriad Roman|b0|i0; 11.0 
  7
STD
210
0.0
220
0.0
230
1.0
 11
1.000001
 21
0.0
 31
0.0
 73
     1
 44
1.0
  0
POLYLINE
  5
184
100
AcDbEntity
  8
EBENE_1
 62
   250
100
AcDb2dPolyline
 66
     1
 10
0.0
 20
0.0
 30
0.0
 70
     1
  0
VERTEX
  5
185
100
AcDbEntity
  8
EBENE_1
 62
   250
100
AcDbVertex
100
AcDb2dVertex
 10
6.010141
 20
70.346438
 30
0.0
  0
VERTEX
  5
186
100
AcDbEntity
  8
EBENE_1
 62
   250
100
AcDbVertex
100
AcDb2dVertex
 10
10.011275
 20
71.343449
 30
0.0
  0
VERTEX
  5
187
100
AcDbEntity
  8
EBENE_1
 62
   250
100
AcDbVertex
100
AcDb2dVertex
 10
10.011275
 20
69.349428
 30
0.0
  0
SEQEND
  5
188
100
AcDbEntity
  8
EBENE_1
 62
   250
  0
HATCH
  5
183
100
AcDbEntity
  8
EBENE_1
 62
   250
100
AcDbHatch
 10
0.0
 20
0.0
 30
0.0
210
0.0
220
0.0
230
1.0
  2
SOLID
 70
     1
 71
     0
 91
        1
 92
        3
 72
     0
 73
     1
 93
        3
 10
6.0101413302951388
 20
70.346438259548606
 10
10.011275227864582
 20
71.343448893229166
 10
10.011275227864582
 20
69.349427625868046
 97
        0
 75
     0
 76
     1
 98
        1
 10
0.0
 20
0.0
  0
LINE
  5
182
100
AcDbEntity
  8
EBENE_1
 62
   250
100
AcDbLine
 10
15.563219
 20
70.293039
 30
0.0
 11
7.26984
 21
70.293039
 31
0.0
  0
POLYLINE
  5
17D
100
AcDbEntity
  8
EBENE_1
 62
   250
100
AcDb2dPolyline
 66
     1
 10
0.0
 20
0.0
 30
0.0
 70
     1
  0
VERTEX
  5
17E
100
AcDbEntity
  8
EBENE_1
 62
   250
100
AcDbVertex
100
AcDb2dVertex
 10
-5.060329
 20
70.574159
 30
0.0
  0
VERTEX
  5
17F
100
AcDbEntity
  8
EBENE_1
 62
   250
100
AcDbVertex
100
AcDb2dVertex
 10
-9.06129
 20
69.577148
 30
0.0
  0
VERTEX
  5
180
100
AcDbEntity
  8
EBENE_1
 62
   250
100
AcDbVertex
100
AcDb2dVertex
 10
-9.06129
 20
71.57117
 30
0.0
  0
SEQEND
  5
181
100
AcDbEntity
  8
EBENE_1
 62
   250
  0
HATCH
  5
17C
100
AcDbEntity
  8
EBENE_1
 62
   250
100
AcDbHatch
 10
0.0
 20
0.0
 30
0.0
210
0.0
220
0.0
230
1.0
  2
SOLID
 70
     1
 71
     0
 91
        1
 92
        3
 72
     0
 73
     1
 93
        3
 10
-5.0603285047743052
 20
70.574159071180546
 10
-9.0612901475694443
 20
69.5771484375
 10
-9.0612901475694443
 20
71.571169704861106
 97
        0
 75
     0
 76
     1
 98
        1
 10
0.0
 20
0.0
  0
LINE
  5
17B
100
AcDbEntity
  8
EBENE_1
 62
   250
100
AcDbLine
 10
-16.294785
 20
70.520071
 30
0.0
 11
-5.294767
 21
70.520071
 31
0.0
  0
LINE
  5
17A
100
AcDbEntity
  8
EBENE_1
 62
   250
100
AcDbLine
 10
6.004285
 20
70.36642
 30
0.0
 11
6.004285
 21
77.50638
 31
0.0
  0
POLYLINE
  5
175
100
AcDbEntity
  8
EBENE_1
 62
   250
100
AcDb2dPolyline
 66
     1
 10
0.0
 20
0.0
 30
0.0
 70
     1
  0
VERTEX
  5
176
100
AcDbEntity
  8
EBENE_1
 62
   250
100
AcDbVertex
100
AcDb2dVertex
 10
269.06747
 20
262.261856
 30
0.0
  0
VERTEX
  5
177
100
AcDbEntity
  8
EBENE_1
 62
   250
100
AcDbVertex
100
AcDb2dVertex
 10
264.993644
 20
261.264845
 30
0.0
  0
VERTEX
  5
178
100
AcDbEntity
  8
EBENE_1
 62
   250
100
AcDbVertex
100
AcDb2dVertex
 10
264.993644
 20
263.258866
 30
0.0
  0
SEQEND
  5
179
100
AcDbEntity
  8
EBENE_1
 62
   250
  0
HATCH
  5
174
100
AcDbEntity
  8
EBENE_1
 62
   250
100
AcDbHatch
 10
0.0
 20
0.0
 30
0.0
210
0.0
220
0.0
230
1.0
  2
SOLID
 70
     1
 71
     0
 91
        1
 92
        3
 72
     0
 73
     1
 93
        3
 10
269.06746961805555
 20
262.26185574001732
 10
264.99364420572914
 20
261.26484510633679
 10
264.99364420572914
 20
263.25886637369791
 97
        0
 75
     0
 76
     1
 98
        1
 10
0.0
 20
0.0
  0
LINE
  5
173
100
AcDbEntity
  8
EBENE_1
 62
   250
100
AcDbLine
 10
130.749642
 20
262.261856
 30
0.0
 11
269.06747
 21
262.261856
 31
0.0
  0
POLYLINE
  5
16E
100
AcDbEntity
  8
EBENE_1
 62
   250
100
AcDb2dPolyline
 66
     1
 10
0.0
 20
0.0
 30
0.0
 70
     1
  0
VERTEX
  5
16F
100
AcDbEntity
  8
EBENE_1
 62
   250
100
AcDbVertex
100
AcDb2dVertex
 10
-5.013131
 20
262.311637
 30
0.0
  0
VERTEX
  5
170
100
AcDbEntity
  8
EBENE_1
 62
   250
100
AcDbVertex
100
AcDb2dVertex
 10
-1.011997
 20
263.308648
 30
0.0
  0
VERTEX
  5
171
100
AcDbEntity
  8
EBENE_1
 62
   250
100
AcDbVertex
100
AcDb2dVertex
 10
-1.011997
 20
261.314627
 30
0.0
  0
SEQEND
  5
172
100
AcDbEntity
  8
EBENE_1
 62
   250
  0
HATCH
  5
16D
100
AcDbEntity
  8
EBENE_1
 62
   250
100
AcDbHatch
 10
0.0
 20
0.0
 30
0.0
210
0.0
220
0.0
230
1.0
  2
SOLID
 70
     1
 71
     0
 91
        1
 92
        3
 72
     0
 73
     1
 93
        3
 10
-5.0131306966145832
 20
262.31163736979164
 10
-1.0119967990451388
 20
263.30864800347217
 10
-1.0119967990451388
 20
261.31462673611111
 97
        0
 75
     0
 76
     1
 98
        1
 10
0.0
 20
0.0
  0
LINE
  5
16C
100
AcDbEntity
  8
EBENE_1
 62
   250
100
AcDbLine
 10
113.896235
 20
262.261856
 30
0.0
 11
-2.691653
 21
262.261856
 31
0.0
  0
LINE
  5
16B
100
AcDbEntity
  8
EBENE_1
 62
   250
100
AcDbLine
 10
269.06747
 20
202.511498
 30
0.0
 11
269.06747
 21
263.51277
 31
0.0
  0
LINE
  5
16A
100
AcDbEntity
  8
EBENE_1
 62
   250
100
AcDbLine
 10
-35.05109
 20
126.511141
 30
0.0
 11
-35.05109
 21
185.011274
 31
0.0
  0
POLYLINE
  5
165
100
AcDbEntity
  8
EBENE_1
 62
   250
100
AcDb2dPolyline
 66
     1
 10
0.0
 20
0.0
 30
0.0
 70
     1
  0
VERTEX
  5
166
100
AcDbEntity
  8
EBENE_1
 62
   250
100
AcDbVertex
100
AcDb2dVertex
 10
156.949249
 20
248.761905
 30
0.0
  0
VERTEX
  5
167
100
AcDbEntity
  8
EBENE_1
 62
   250
100
AcDbVertex
100
AcDb2dVertex
 10
152.948115
 20
247.764894
 30
0.0
  0
VERTEX
  5
168
100
AcDbEntity
  8
EBENE_1
 62
   250
100
AcDbVertex
100
AcDb2dVertex
 10
152.948115
 20
249.758915
 30
0.0
  0
SEQEND
  5
169
100
AcDbEntity
  8
EBENE_1
 62
   250
  0
HATCH
  5
164
100
AcDbEntity
  8
EBENE_1
 62
   250
100
AcDbHatch
 10
0.0
 20
0.0
 30
0.0
210
0.0
220
0.0
230
1.0
  2
SOLID
 70
     1
 71
     0
 91
        1
 92
        3
 72
     0
 73
     1
 93
        3
 10
156.94924858940971
 20
248.76190456814234
 10
152.94811469184026
 20
247.76489393446178
 10
152.94811469184026
 20
249.7589152018229
 97
        0
 75
     0
 76
     1
 98
        1
 10
0.0
 20
0.0
  0
LINE
  5
163
100
AcDbEntity
  8
EBENE_1
 62
   250
100
AcDbLine
 10
91.216827
 20
248.761905
 30
0.0
 11
156.949249
 21
248.761905
 31
0.0
  0
POLYLINE
  5
15E
100
AcDbEntity
  8
EBENE_1
 62
   250
100
AcDb2dPolyline
 66
     1
 10
0.0
 20
0.0
 30
0.0
 70
     1
  0
VERTEX
  5
15F
100
AcDbEntity
  8
EBENE_1
 62
   250
100
AcDbVertex
100
AcDb2dVertex
 10
-5.071697
 20
248.886962
 30
0.0
  0
VERTEX
  5
160
100
AcDbEntity
  8
EBENE_1
 62
   250
100
AcDbVertex
100
AcDb2dVertex
 10
-1.070736
 20
249.883972
 30
0.0
  0
VERTEX
  5
161
100
AcDbEntity
  8
EBENE_1
 62
   250
100
AcDbVertex
100
AcDb2dVertex
 10
-1.070736
 20
247.889951
 30
0.0
  0
SEQEND
  5
162
100
AcDbEntity
  8
EBENE_1
 62
   250
  0
HATCH
  5
15D
100
AcDbEntity
  8
EBENE_1
 62
   250
100
AcDbHatch
 10
0.0
 20
0.0
 30
0.0
210
0.0
220
0.0
230
1.0
  2
SOLID
 70
     1
 71
     0
 91
        1
 92
        3
 72
     0
 73
     1
 93
        3
 10
-5.0716973198784716
 20
248.88696153428816
 10
-1.0707356770833332
 20
249.88397216796872
 10
-1.0707356770833332
 20
247.88995090060763
 97
        0
 75
     0
 76
     1
 98
        1
 10
0.0
 20
0.0
  0
LINE
  5
15C
100
AcDbEntity
  8
EBENE_1
 62
   250
100
AcDbLine
 10
79.182075
 20
248.854922
 30
0.0
 11
-1.354784
 21
248.854922
 31
0.0
  0
LINE
  5
15B
100
AcDbEntity
  8
EBENE_1
 62
   250
100
AcDbLine
 10
156.949249
 20
202.511498
 30
0.0
 11
156.949249
 21
213.761457
 31
0.0
  0
LINE
  5
15A
100
AcDbEntity
  8
EBENE_1
 62
   250
100
AcDbLine
 10
-5.047065
 20
161.614597
 30
0.0
 11
-5.047065
 21
263.684163
 31
0.0
  0
MTEXT
  5
159
100
AcDbEntity
  8
EBENE_1
 62
   250
100
AcDbMText
 10
207.67449
 20
250.511975
 30
0.0
 40
3.500007
 41
0.0
 71
     1
 72
     2
  1
\fMyriad Roman|b0|i0; 112.5 
  7
STD
210
0.0
220
0.0
230
1.0
 11
1.000001
 21
0.0
 31
0.0
 73
     1
 44
1.0
  0
POLYLINE
  5
154
100
AcDbEntity
  8
EBENE_1
 62
   250
100
AcDb2dPolyline
 66
     1
 10
0.0
 20
0.0
 30
0.0
 70
     1
  0
VERTEX
  5
155
100
AcDbEntity
  8
EBENE_1
 62
   250
100
AcDbVertex
100
AcDb2dVertex
 10
156.949249
 20
248.751397
 30
0.0
  0
VERTEX
  5
156
100
AcDbEntity
  8
EBENE_1
 62
   250
100
AcDbVertex
100
AcDb2dVertex
 10
160.950382
 20
249.748408
 30
0.0
  0
VERTEX
  5
157
100
AcDbEntity
  8
EBENE_1
 62
   250
100
AcDbVertex
100
AcDb2dVertex
 10
160.950382
 20
247.754386
 30
0.0
  0
SEQEND
  5
158
100
AcDbEntity
  8
EBENE_1
 62
   250
  0
HATCH
  5
153
100
AcDbEntity
  8
EBENE_1
 62
   250
100
AcDbHatch
 10
0.0
 20
0.0
 30
0.0
210
0.0
220
0.0
230
1.0
  2
SOLID
 70
     1
 71
     0
 91
        1
 92
        3
 72
     0
 73
     1
 93
        3
 10
156.94924858940971
 20
248.7513970269097
 10
160.95038248697915
 20
249.74840766059026
 10
160.95038248697915
 20
247.75438639322914
 97
        0
 75
     0
 76
     1
 98
        1
 10
0.0
 20
0.0
  0
LINE
  5
152
100
AcDbEntity
  8
EBENE_1
 62
   250
100
AcDbLine
 10
202.497201
 20
248.761905
 30
0.0
 11
156.949249
 21
248.761905
 31
0.0
  0
POLYLINE
  5
14D
100
AcDbEntity
  8
EBENE_1
 62
   250
100
AcDb2dPolyline
 66
     1
 10
0.0
 20
0.0
 30
0.0
 70
     1
  0
VERTEX
  5
14E
100
AcDbEntity
  8
EBENE_1
 62
   250
100
AcDbVertex
100
AcDb2dVertex
 10
269.06747
 20
248.761905
 30
0.0
  0
VERTEX
  5
14F
100
AcDbEntity
  8
EBENE_1
 62
   250
100
AcDbVertex
100
AcDb2dVertex
 10
264.993644
 20
247.764894
 30
0.0
  0
VERTEX
  5
150
100
AcDbEntity
  8
EBENE_1
 62
   250
100
AcDbVertex
100
AcDb2dVertex
 10
264.993644
 20
249.758915
 30
0.0
  0
SEQEND
  5
151
100
AcDbEntity
  8
EBENE_1
 62
   250
  0
HATCH
  5
14C
100
AcDbEntity
  8
EBENE_1
 62
   250
100
AcDbHatch
 10
0.0
 20
0.0
 30
0.0
210
0.0
220
0.0
230
1.0
  2
SOLID
 70
     1
 71
     0
 91
        1
 92
        3
 72
     0
 73
     1
 93
        3
 10
269.06746961805555
 20
248.76190456814234
 10
264.99364420572914
 20
247.76489393446178
 10
264.99364420572914
 20
249.7589152018229
 97
        0
 75
     0
 76
     1
 98
        1
 10
0.0
 20
0.0
  0
LINE
  5
14B
100
AcDbEntity
  8
EBENE_1
 62
   250
100
AcDbLine
 10
222.073611
 20
248.761905
 30
0.0
 11
269.06747
 21
248.761905
 31
0.0
  0
LINE
  5
14A
100
AcDbEntity
  8
EBENE_1
 62
   250
100
AcDbLine
 10
156.949249
 20
202.511498
 30
0.0
 11
156.949249
 21
249.270056
 31
0.0
  0
LINE
  5
149
100
AcDbEntity
  8
EBENE_1
 62
   250
100
AcDbLine
 10
269.06747
 20
202.511498
 30
0.0
 11
269.06747
 21
213.761457
 31
0.0
  0
MTEXT
  5
148
100
AcDbEntity
  8
EBENE_1
 62
   250
100
AcDbMText
 10
277.443186
 20
145.011438
 30
0.0
 40
3.500007
 41
0.0
 71
     1
 72
     2
  1
\W1.02;\fMyriad Roman|b0|i0; 120.0 
  7
STD
210
0.0
220
0.0
230
1.0
 11
1.000001
 21
0.0
 31
0.0
 73
     1
 44
1.0
  0
POLYLINE
  5
143
100
AcDbEntity
  8
EBENE_1
 62
   250
100
AcDb2dPolyline
 66
     1
 10
0.0
 20
0.0
 30
0.0
 70
     1
  0
VERTEX
  5
144
100
AcDbEntity
  8
EBENE_1
 62
   250
100
AcDbVertex
100
AcDb2dVertex
 10
284.55972
 20
202.511498
 30
0.0
  0
VERTEX
  5
145
100
AcDbEntity
  8
EBENE_1
 62
   250
100
AcDbVertex
100
AcDb2dVertex
 10
285.574989
 20
198.510536
 30
0.0
  0
VERTEX
  5
146
100
AcDbEntity
  8
EBENE_1
 62
   250
100
AcDbVertex
100
AcDb2dVertex
 10
283.54445
 20
198.510536
 30
0.0
  0
SEQEND
  5
147
100
AcDbEntity
  8
EBENE_1
 62
   250
  0
HATCH
  5
142
100
AcDbEntity
  8
EBENE_1
 62
   250
100
AcDbHatch
 10
0.0
 20
0.0
 30
0.0
210
0.0
220
0.0
230
1.0
  2
SOLID
 70
     1
 71
     0
 91
        1
 92
        3
 72
     0
 73
     1
 93
        3
 10
284.55971950954859
 20
202.51149766710068
 10
285.57498914930551
 20
198.51053602430554
 10
283.54444986979166
 20
198.51053602430554
 97
        0
 75
     0
 76
     1
 98
        1
 10
0.0
 20
0.0
  0
LINE
  5
141
100
AcDbEntity
  8
EBENE_1
 62
   250
100
AcDbLine
 10
284.55972
 20
146.761412
 30
0.0
 11
284.55972
 21
202.511498
 31
0.0
  0
POLYLINE
  5
13C
100
AcDbEntity
  8
EBENE_1
 62
   250
100
AcDb2dPolyline
 66
     1
 10
0.0
 20
0.0
 30
0.0
 70
     1
  0
VERTEX
  5
13D
100
AcDbEntity
  8
EBENE_1
 62
   250
100
AcDbVertex
100
AcDb2dVertex
 10
284.55972
 20
82.511415
 30
0.0
  0
VERTEX
  5
13E
100
AcDbEntity
  8
EBENE_1
 62
   250
100
AcDbVertex
100
AcDb2dVertex
 10
283.54445
 20
86.512549
 30
0.0
  0
VERTEX
  5
13F
100
AcDbEntity
  8
EBENE_1
 62
   250
100
AcDbVertex
100
AcDb2dVertex
 10
285.574989
 20
86.512549
 30
0.0
  0
SEQEND
  5
140
100
AcDbEntity
  8
EBENE_1
 62
   250
  0
HATCH
  5
13B
100
AcDbEntity
  8
EBENE_1
 62
   250
100
AcDbHatch
 10
0.0
 20
0.0
 30
0.0
210
0.0
220
0.0
230
1.0
  2
SOLID
 70
     1
 71
     0
 91
        1
 92
        3
 72
     0
 73
     1
 93
        3
 10
284.55971950954859
 20
82.511414930555546
 10
283.54444986979166
 20
86.512548828124991
 10
285.57498914930551
 20
86.512548828124991
 97
        0
 75
     0
 76
     1
 98
        1
 10
0.0
 20
0.0
  0
LINE
  5
13A
100
AcDbEntity
  8
EBENE_1
 62
   250
100
AcDbLine
 10
284.55972
 20
139.761323
 30
0.0
 11
284.55972
 21
82.511415
 31
0.0
  0
LINE
  5
139
100
AcDbEntity
  8
EBENE_1
 62
   250
100
AcDbLine
 10
264.994333
 20
202.511498
 30
0.0
 11
284.55972
 21
202.511498
 31
0.0
  0
LINE
  5
138
100
AcDbEntity
  8
EBENE_1
 62
   250
100
AcDbLine
 10
264.994333
 20
82.511415
 30
0.0
 11
284.55972
 21
82.511415
 31
0.0
  0
LINE
  5
137
100
AcDbEntity
  8
EBENE_1
 62
   250
100
AcDbLine
 10
-14.128681
 20
185.118416
 30
0.0
 11
-5.010547
 21
185.118416
 31
0.0
  0
LINE
  5
136
100
AcDbEntity
  8
EBENE_1
 62
   250
100
AcDbLine
 10
-5.007102
 20
70.579671
 30
0.0
 11
-5.007102
 21
77.719976
 31
0.0
  0
MTEXT
  5
135
100
AcDbEntity
  8
EBENE_1
 62
   250
100
AcDbMText
 10
-73.860091
 20
122.39586
 30
0.0
 40
3.674769
 41
0.0
 71
     1
 72
     2
  1
\fMyriad Roman|b0|i0;86.0 
  7
STD
210
0.0
220
0.0
230
1.0
 11
1.000001
 21
0.0
 31
0.0
 73
     1
 44
1.0
  0
LINE
  5
134
100
AcDbEntity
  8
EBENE_1
 62
   250
100
AcDbLine
 10
-69.143411
 20
116.481779
 30
0.0
 11
-69.143411
 21
78.718709
 31
0.0
  0
POLYLINE
  5
12F
100
AcDbEntity
  8
EBENE_1
 62
   250
100
AcDb2dPolyline
 66
     1
 10
0.0
 20
0.0
 30
0.0
  0
VERTEX
  5
130
100
AcDbEntity
  8
EBENE_1
 62
   250
100
AcDbVertex
100
AcDb2dVertex
 10
-69.167871
 20
162.477766
 30
0.0
  0
VERTEX
  5
131
100
AcDbEntity
  8
EBENE_1
 62
   250
100
AcDbVertex
100
AcDb2dVertex
 10
-68.17086
 20
158.476632
 30
0.0
  0
VERTEX
  5
132
100
AcDbEntity
  8
EBENE_1
 62
   250
100
AcDbVertex
100
AcDb2dVertex
 10
-70.164882
 20
158.476632
 30
0.0
  0
SEQEND
  5
133
100
AcDbEntity
  8
EBENE_1
 62
   250
  0
HATCH
  5
12E
100
AcDbEntity
  8
EBENE_1
 62
   250
100
AcDbHatch
 10
0.0
 20
0.0
 30
0.0
210
0.0
220
0.0
230
1.0
  2
SOLID
 70
     1
 71
     0
 91
        1
 92
        3
 72
     0
 73
     0
 93
        3
 10
-69.167871093749994
 20
162.47776557074653
 10
-68.170860460069434
 20
158.47663167317708
 10
-70.164881727430554
 20
158.47663167317708
 97
        0
 75
     0
 76
     1
 98
        1
 10
0.0
 20
0.0
  0
LINE
  5
12D
100
AcDbEntity
  8
EBENE_1
 62
   250
100
AcDbLine
 10
-69.234878
 20
124.087172
 30
0.0
 11
-69.234878
 21
160.887854
 31
0.0
  0
LINE
  5
12C
100
AcDbEntity
  8
EBENE_1
 62
   250
100
AcDbLine
 10
-5.114417
 20
76.147979
 30
0.0
 11
-69.265023
 21
76.147979
 31
0.0
  0
LINE
  5
12B
100
AcDbEntity
  8
EBENE_1
 62
   250
100
AcDbLine
 10
-8.055839
 20
159.485011
 30
0.0
 11
-56.865263
 21
159.485011
 31
0.0
  0
POLYLINE
  5
126
100
AcDbEntity
  8
EBENE_1
 62
   250
100
AcDb2dPolyline
 66
     1
 10
0.0
 20
0.0
 30
0.0
 70
     1
  0
VERTEX
  5
127
100
AcDbEntity
  8
EBENE_1
 62
   250
100
AcDbVertex
100
AcDb2dVertex
 10
-69.175278
 20
76.151769
 30
0.0
  0
VERTEX
  5
128
100
AcDbEntity
  8
EBENE_1
 62
   250
100
AcDbVertex
100
AcDb2dVertex
 10
-70.172289
 20
80.152903
 30
0.0
  0
VERTEX
  5
129
100
AcDbEntity
  8
EBENE_1
 62
   250
100
AcDbVertex
100
AcDb2dVertex
 10
-68.178267
 20
80.152903
 30
0.0
  0
SEQEND
  5
12A
100
AcDbEntity
  8
EBENE_1
 62
   250
  0
HATCH
  5
125
100
AcDbEntity
  8
EBENE_1
 62
   250
100
AcDbHatch
 10
0.0
 20
0.0
 30
0.0
210
0.0
220
0.0
230
1.0
  2
SOLID
 70
     1
 71
     0
 91
        1
 92
        3
 72
     0
 73
     1
 93
        3
 10
-69.175278049045133
 20
76.151768663194431
 10
-70.172288682725693
 20
80.152902560763877
 10
-68.178267415364573
 20
80.152902560763877
 97
        0
 75
     0
 76
     1
 98
        1
 10
0.0
 20
0.0
  0
LINE
  5
124
100
AcDbEntity
  8
EBENE_1
 62
   250
100
AcDbLine
 10
-43.891895
 20
134.482058
 30
0.0
 11
-43.891895
 21
126.481858
 31
0.0
  0
LINE
  5
123
100
AcDbEntity
  8
EBENE_1
 62
   250
100
AcDbLine
 10
-43.702242
 20
104.524886
 30
0.0
 11
-43.702242
 21
112.524398
 31
0.0
  0
LINE
  5
122
100
AcDbEntity
  8
EBENE_1
 62
   250
100
AcDbLine
 10
-35.039549
 20
126.481858
 30
0.0
 11
-43.892067
 21
126.481858
 31
0.0
  0
LINE
  5
121
100
AcDbEntity
  8
EBENE_1
 62
   250
100
AcDbLine
 10
-34.925689
 20
112.562294
 30
0.0
 11
-43.713783
 21
112.562294
 31
0.0
  0
LINE
  5
120
100
AcDbEntity
  8
EBENE_1
 62
   250
100
AcDbLine
 10
-4.759399
 20
162.547184
 30
0.0
 11
-69.234361
 21
162.547184
 31
0.0
  0
LINE
  5
11F
100
AcDbEntity
  8
EBENE_1
 62
   250
100
AcDbLine
 10
-8.014842
 20
79.505569
 30
0.0
 11
-56.911599
 21
79.505569
 31
0.0
  0
LINE
  5
11E
100
AcDbEntity
  8
EBENE_1
 62
   250
100
AcDbLine
 10
-56.90936
 20
124.010002
 30
0.0
 11
-56.90936
 21
159.302766
 31
0.0
  0
LINE
  5
11D
100
AcDbEntity
  8
EBENE_1
 62
   250
100
AcDbLine
 10
-56.909532
 20
79.843188
 30
0.0
 11
-56.909532
 21
116.320204
 31
0.0
  0
POLYLINE
  5
118
100
AcDbEntity
  8
EBENE_1
 62
   250
100
AcDb2dPolyline
 66
     1
 10
0.0
 20
0.0
 30
0.0
 70
     1
  0
VERTEX
  5
119
100
AcDbEntity
  8
EBENE_1
 62
   250
100
AcDbVertex
100
AcDb2dVertex
 10
-56.911599
 20
79.518316
 30
0.0
  0
VERTEX
  5
11A
100
AcDbEntity
  8
EBENE_1
 62
   250
100
AcDbVertex
100
AcDb2dVertex
 10
-57.90861
 20
83.51945
 30
0.0
  0
VERTEX
  5
11B
100
AcDbEntity
  8
EBENE_1
 62
   250
100
AcDbVertex
100
AcDb2dVertex
 10
-55.914589
 20
83.51945
 30
0.0
  0
SEQEND
  5
11C
100
AcDbEntity
  8
EBENE_1
 62
   250
  0
HATCH
  5
117
100
AcDbEntity
  8
EBENE_1
 62
   250
100
AcDbHatch
 10
0.0
 20
0.0
 30
0.0
210
0.0
220
0.0
230
1.0
  2
SOLID
 70
     1
 71
     0
 91
        1
 92
        3
 72
     0
 73
     1
 93
        3
 10
-56.911599392361104
 20
79.518315972222211
 10
-57.908610026041664
 20
83.519449869791657
 10
-55.914588758680551
 20
83.519449869791657
 97
        0
 75
     0
 76
     1
 98
        1
 10
0.0
 20
0.0
  0
POLYLINE
  5
112
100
AcDbEntity
  8
EBENE_1
 62
   250
100
AcDb2dPolyline
 66
     1
 10
0.0
 20
0.0
 30
0.0
 70
     1
  0
VERTEX
  5
113
100
AcDbEntity
  8
EBENE_1
 62
   250
100
AcDbVertex
100
AcDb2dVertex
 10
-43.87019
 20
126.499083
 30
0.0
  0
VERTEX
  5
114
100
AcDbEntity
  8
EBENE_1
 62
   250
100
AcDbVertex
100
AcDb2dVertex
 10
-44.867201
 20
130.500217
 30
0.0
  0
VERTEX
  5
115
100
AcDbEntity
  8
EBENE_1
 62
   250
100
AcDbVertex
100
AcDb2dVertex
 10
-42.87318
 20
130.500217
 30
0.0
  0
SEQEND
  5
116
100
AcDbEntity
  8
EBENE_1
 62
   250
  0
HATCH
  5
111
100
AcDbEntity
  8
EBENE_1
 62
   250
100
AcDbHatch
 10
0.0
 20
0.0
 30
0.0
210
0.0
220
0.0
230
1.0
  2
SOLID
 70
     1
 71
     0
 91
        1
 92
        3
 72
     0
 73
     1
 93
        3
 10
-43.870190429687497
 20
126.49908311631944
 10
-44.86720106336805
 20
130.50021701388889
 10
-42.873179796006937
 20
130.50021701388889
 97
        0
 75
     0
 76
     1
 98
        1
 10
0.0
 20
0.0
  0
POLYLINE
  5
10C
100
AcDbEntity
  8
EBENE_1
 62
   250
100
AcDb2dPolyline
 66
     1
 10
0.0
 20
0.0
 30
0.0
  0
VERTEX
  5
10D
100
AcDbEntity
  8
EBENE_1
 62
   250
100
AcDbVertex
100
AcDb2dVertex
 10
-56.915734
 20
159.449527
 30
0.0
  0
VERTEX
  5
10E
100
AcDbEntity
  8
EBENE_1
 62
   250
100
AcDbVertex
100
AcDb2dVertex
 10
-55.918723
 20
155.448393
 30
0.0
  0
VERTEX
  5
10F
100
AcDbEntity
  8
EBENE_1
 62
   250
100
AcDbVertex
100
AcDb2dVertex
 10
-57.912744
 20
155.448393
 30
0.0
  0
SEQEND
  5
110
100
AcDbEntity
  8
EBENE_1
 62
   250
  0
HATCH
  5
10B
100
AcDbEntity
  8
EBENE_1
 62
   250
100
AcDbHatch
 10
0.0
 20
0.0
 30
0.0
210
0.0
220
0.0
230
1.0
  2
SOLID
 70
     1
 71
     0
 91
        1
 92
        3
 72
     0
 73
     0
 93
        3
 10
-56.915733506944441
 20
159.44952663845484
 10
-55.918722873263881
 20
155.4483927408854
 10
-57.912744140624994
 20
155.4483927408854
 97
        0
 75
     0
 76
     1
 98
        1
 10
0.0
 20
0.0
  0
POLYLINE
  5
106
100
AcDbEntity
  8
EBENE_1
 62
   250
100
AcDb2dPolyline
 66
     1
 10
0.0
 20
0.0
 30
0.0
  0
VERTEX
  5
107
100
AcDbEntity
  8
EBENE_1
 62
   250
100
AcDbVertex
100
AcDb2dVertex
 10
-43.64247
 20
112.590199
 30
0.0
  0
VERTEX
  5
108
100
AcDbEntity
  8
EBENE_1
 62
   250
100
AcDbVertex
100
AcDb2dVertex
 10
-42.645459
 20
108.589065
 30
0.0
  0
VERTEX
  5
109
100
AcDbEntity
  8
EBENE_1
 62
   250
100
AcDbVertex
100
AcDb2dVertex
 10
-44.63948
 20
108.589065
 30
0.0
  0
SEQEND
  5
10A
100
AcDbEntity
  8
EBENE_1
 62
   250
  0
HATCH
  5
105
100
AcDbEntity
  8
EBENE_1
 62
   250
100
AcDbHatch
 10
0.0
 20
0.0
 30
0.0
210
0.0
220
0.0
230
1.0
  2
SOLID
 70
     1
 71
     0
 91
        1
 92
        3
 72
     0
 73
     0
 93
        3
 10
-43.64246961805555
 20
112.59019911024305
 10
-42.645458984374997
 20
108.5890652126736
 10
-44.63948025173611
 20
108.5890652126736
 97
        0
 75
     0
 76
     1
 98
        1
 10
0.0
 20
0.0
  0
MTEXT
  5
104
100
AcDbEntity
  8
EBENE_1
 62
   250
100
AcDbMText
 10
-61.470839
 20
122.244275
 30
0.0
 40
3.674769
 41
0.0
 71
     1
 72
     2
  1
\fMyriad Roman|b0|i0;80j6 
  7
STD
210
0.0
220
0.0
230
1.0
 11
1.000001
 21
0.0
 31
0.0
 73
     1
 44
1.0
  0
MTEXT
  5
103
100
AcDbEntity
  8
EBENE_1
 62
   250
100
AcDbMText
 10
-48.881254
 20
122.092691
 30
0.0
 40
3.674769
 41
0.0
 71
     1
 72
     2
  1
\fMyriad Roman|b0|i0;14k6 
  7
STD
210
0.0
220
0.0
230
1.0
 11
1.000001
 21
0.0
 31
0.0
 73
     1
 44
1.0
  0
MTEXT
  5
102
100
AcDbEntity
  8
EBENE_1
 62
   250
100
AcDbMText
 10
22.721783
 20
120.391848
 30
0.0
 40
3.674769
 41
0.0
 71
     1
 72
     2
  1
\fMyriad Roman|b0|i0;74.0 
  7
STD
210
0.0
220
0.0
230
1.0
 11
1.000001
 21
0.0
 31
0.0
 73
     1
 44
1.0
  0
LINE
  5
101
100
AcDbEntity
  8
EBENE_1
 62
   250
100
AcDbLine
 10
27.120481
 20
123.461887
 30
0.0
 11
27.120481
 21
156.892749
 31
0.0
  0
LINE
  5
100
100
AcDbEntity
  8
EBENE_1
 62
   250
100
AcDbLine
 10
27.265864
 20
82.756706
 30
0.0
 11
27.265864
 21
114.587321
 31
0.0
  0
POLYLINE
  5
FB
100
AcDbEntity
  8
EBENE_1
 62
   250
100
AcDb2dPolyline
 66
     1
 10
0.0
 20
0.0
 30
0.0
  0
VERTEX
  5
FC
100
AcDbEntity
  8
EBENE_1
 62
   250
100
AcDbVertex
100
AcDb2dVertex
 10
27.265864
 20
156.231807
 30
0.0
  0
VERTEX
  5
FD
100
AcDbEntity
  8
EBENE_1
 62
   250
100
AcDbVertex
100
AcDb2dVertex
 10
28.262874
 20
152.230674
 30
0.0
  0
VERTEX
  5
FE
100
AcDbEntity
  8
EBENE_1
 62
   250
100
AcDbVertex
100
AcDb2dVertex
 10
26.268853
 20
152.230674
 30
0.0
  0
SEQEND
  5
FF
100
AcDbEntity
  8
EBENE_1
 62
   250
  0
HATCH
  5
FA
100
AcDbEntity
  8
EBENE_1
 62
   250
100
AcDbHatch
 10
0.0
 20
0.0
 30
0.0
210
0.0
220
0.0
230
1.0
  2
SOLID
 70
     1
 71
     0
 91
        1
 92
        3
 72
     0
 73
     0
 93
        3
 10
27.265863715277774
 20
156.23180745442707
 10
28.262874348958331
 20
152.23067355685762
 10
26.268853081597221
 20
152.23067355685762
 97
        0
 75
     0
 76
     1
 98
        1
 10
0.0
 20
0.0
  0
POLYLINE
  5
F5
100
AcDbEntity
  8
EBENE_1
 62
   250
100
AcDb2dPolyline
 66
     1
 10
0.0
 20
0.0
 30
0.0
  0
VERTEX
  5
F6
100
AcDbEntity
  8
EBENE_1
 62
   250
100
AcDbVertex
100
AcDb2dVertex
 10
26.268853
 20
86.400583
 30
0.0
  0
VERTEX
  5
F7
100
AcDbEntity
  8
EBENE_1
 62
   250
100
AcDbVertex
100
AcDb2dVertex
 10
28.262874
 20
86.400583
 30
0.0
  0
VERTEX
  5
F8
100
AcDbEntity
  8
EBENE_1
 62
   250
100
AcDbVertex
100
AcDb2dVertex
 10
27.265864
 20
82.399449
 30
0.0
  0
SEQEND
  5
F9
100
AcDbEntity
  8
EBENE_1
 62
   250
  0
HATCH
  5
F4
100
AcDbEntity
  8
EBENE_1
 62
   250
100
AcDbHatch
 10
0.0
 20
0.0
 30
0.0
210
0.0
220
0.0
230
1.0
  2
SOLID
 70
     1
 71
     0
 91
        1
 92
        3
 72
     0
 73
     0
 93
        3
 10
26.268853081597221
 20
86.400583224826377
 10
28.262874348958331
 20
86.400583224826377
 10
27.265863715277774
 20
82.399449327256931
 97
        0
 75
     0
 76
     1
 98
        1
 10
0.0
 20
0.0
  0
MTEXT
  5
F3
100
AcDbEntity
  8
EBENE_1
 62
   250
100
AcDbMText
 10
116.805273
 20
264.822653
 30
0.0
 40
3.674769
 41
0.0
 71
     1
 72
     2
  1
\fMyriad Roman|b0|i0;274.5 
  7
STD
210
0.0
220
0.0
230
1.0
 11
1.000001
 21
0.0
 31
0.0
 73
     1
 44
1.0
  0
MTEXT
  5
F2
100
AcDbEntity
  8
EBENE_1
 62
   250
100
AcDbMText
 10
81.536453
 20
251.30117
 30
0.0
 40
3.674769
 41
0.0
 71
     1
 72
     2
  1
\fMyriad Roman|b0|i0;162 
  7
STD
210
0.0
220
0.0
230
1.0
 11
1.000001
 21
0.0
 31
0.0
 73
     1
 44
1.0
  0
LINE
  5
F1
100
AcDbEntity
  8
EBENE_1
 62
   250
100
AcDbLine
 10
-34.157088
 20
112.476855
 30
0.0
 11
-34.157088
 21
126.527677
 31
0.0
  0
LINE
  5
F0
100
AcDbEntity
  8
EBENE_1
 62
   250
100
AcDbLine
 10
91.937541
 20
192.146067
 30
0.0
 11
98.437402
 21
192.146067
 31
0.0
  0
LINE
  5
EF
100
AcDbEntity
  8
EBENE_1
 62
   250
100
AcDbLine
 10
91.937541
 20
174.146132
 30
0.0
 11
98.437402
 21
174.146132
 31
0.0
  0
LINE
  5
EE
100
AcDbEntity
  8
EBENE_1
 62
   250
100
AcDbLine
 10
90.937429
 20
173.146021
 30
0.0
 11
90.937429
 21
171.646026
 31
0.0
  0
LINE
  5
ED
100
AcDbEntity
  8
EBENE_1
 62
   250
100
AcDbLine
 10
88.937552
 20
176.14601
 30
0.0
 11
88.937552
 21
173.146021
 31
0.0
  0
LINE
  5
EC
100
AcDbEntity
  8
EBENE_1
 62
   250
100
AcDbLine
 10
86.937674
 20
179.646227
 30
0.0
 11
86.937674
 21
174.646015
 31
0.0
  0
LINE
  5
EB
100
AcDbEntity
  8
EBENE_1
 62
   250
100
AcDbLine
 10
84.937451
 20
183.146099
 30
0.0
 11
84.937451
 21
174.646015
 31
0.0
  0
LINE
  5
EA
100
AcDbEntity
  8
EBENE_1
 62
   250
100
AcDbLine
 10
86.937674
 20
209.646118
 30
0.0
 11
86.937674
 21
188.646194
 31
0.0
  0
LINE
  5
E9
100
AcDbEntity
  8
EBENE_1
 62
   250
100
AcDbLine
 10
88.937552
 20
209.646118
 30
0.0
 11
88.937552
 21
191.145955
 31
0.0
  0
LINE
  5
E8
100
AcDbEntity
  8
EBENE_1
 62
   250
100
AcDbLine
 10
90.937429
 20
209.646118
 30
0.0
 11
90.937429
 21
194.145945
 31
0.0
  0
POLYLINE
  5
E3
100
AcDbEntity
  8
EBENE_1
 62
   250
100
AcDb2dPolyline
 66
     1
 10
0.0
 20
0.0
 30
0.0
  0
VERTEX
  5
E4
100
AcDbEntity
  8
EBENE_1
 62
   250
100
AcDbVertex
100
AcDb2dVertex
 10
91.937541
 20
195.146056
 30
0.0
  0
VERTEX
  5
E5
100
AcDbEntity
  8
EBENE_1
 62
   250
100
AcDbVertex
100
AcDb2dVertex
 10
83.937684
 20
184.646094
 30
0.0
  0
VERTEX
  5
E6
100
AcDbEntity
  8
EBENE_1
 62
   250
100
AcDbVertex
100
AcDb2dVertex
 10
91.937541
 20
171.646026
 30
0.0
  0
SEQEND
  5
E7
100
AcDbEntity
  8
EBENE_1
 62
   250
  0
POLYLINE
  5
CB
100
AcDbEntity
  8
EBENE_1
 62
   250
100
AcDb2dPolyline
 66
     1
 10
0.0
 20
0.0
 30
0.0
  0
VERTEX
  5
CC
100
AcDbEntity
  8
EBENE_1
 62
   250
100
AcDbVertex
100
AcDb2dVertex
 10
66.937516
 20
230.646042
 30
0.0
  0
VERTEX
  5
CD
100
AcDbEntity
  8
EBENE_1
 62
   250
100
AcDbVertex
100
AcDb2dVertex
 10
66.937516
 20
223.645953
 30
0.0
  0
VERTEX
  5
CE
100
AcDbEntity
  8
EBENE_1
 62
   250
100
AcDbVertex
100
AcDb2dVertex
 10
67.4374
 20
223.146069
 30
0.0
  0
VERTEX
  5
CF
100
AcDbEntity
  8
EBENE_1
 62
   250
100
AcDbVertex
100
AcDb2dVertex
 10
66.937516
 20
222.645841
 30
0.0
  0
VERTEX
  5
D0
100
AcDbEntity
  8
EBENE_1
 62
   250
100
AcDbVertex
100
AcDb2dVertex
 10
67.4374
 20
222.145958
 30
0.0
  0
VERTEX
  5
D1
100
AcDbEntity
  8
EBENE_1
 62
   250
100
AcDbVertex
100
AcDb2dVertex
 10
66.937516
 20
221.646075
 30
0.0
  0
VERTEX
  5
D2
100
AcDbEntity
  8
EBENE_1
 62
   250
100
AcDbVertex
100
AcDb2dVertex
 10
67.4374
 20
221.145847
 30
0.0
  0
VERTEX
  5
D3
100
AcDbEntity
  8
EBENE_1
 62
   250
100
AcDbVertex
100
AcDb2dVertex
 10
66.937516
 20
220.645964
 30
0.0
  0
VERTEX
  5
D4
100
AcDbEntity
  8
EBENE_1
 62
   250
100
AcDbVertex
100
AcDb2dVertex
 10
66.937516
 20
170.645915
 30
0.0
  0
VERTEX
  5
D5
100
AcDbEntity
  8
EBENE_1
 62
   250
100
AcDbVertex
100
AcDb2dVertex
 10
91.937541
 20
170.645915
 30
0.0
  0
VERTEX
  5
D6
100
AcDbEntity
  8
EBENE_1
 62
   250
100
AcDbVertex
100
AcDb2dVertex
 10
91.937541
 20
211.645996
 30
0.0
  0
VERTEX
  5
D7
100
AcDbEntity
  8
EBENE_1
 62
   250
100
AcDbVertex
100
AcDb2dVertex
 10
90.937429
 20
212.646107
 30
0.0
  0
VERTEX
  5
D8
100
AcDbEntity
  8
EBENE_1
 62
   250
100
AcDbVertex
100
AcDb2dVertex
 10
90.937429
 20
216.14598
 30
0.0
  0
VERTEX
  5
D9
100
AcDbEntity
  8
EBENE_1
 62
   250
100
AcDbVertex
100
AcDb2dVertex
 10
91.937541
 20
217.146091
 30
0.0
  0
VERTEX
  5
DA
100
AcDbEntity
  8
EBENE_1
 62
   250
100
AcDbVertex
100
AcDb2dVertex
 10
91.937541
 20
220.645964
 30
0.0
  0
VERTEX
  5
DB
100
AcDbEntity
  8
EBENE_1
 62
   250
100
AcDbVertex
100
AcDb2dVertex
 10
91.437657
 20
221.145847
 30
0.0
  0
VERTEX
  5
DC
100
AcDbEntity
  8
EBENE_1
 62
   250
100
AcDbVertex
100
AcDb2dVertex
 10
91.937541
 20
221.646075
 30
0.0
  0
VERTEX
  5
DD
100
AcDbEntity
  8
EBENE_1
 62
   250
100
AcDbVertex
100
AcDb2dVertex
 10
91.437657
 20
222.145958
 30
0.0
  0
VERTEX
  5
DE
100
AcDbEntity
  8
EBENE_1
 62
   250
100
AcDbVertex
100
AcDb2dVertex
 10
91.937541
 20
222.645841
 30
0.0
  0
VERTEX
  5
DF
100
AcDbEntity
  8
EBENE_1
 62
   250
100
AcDbVertex
100
AcDb2dVertex
 10
91.437657
 20
223.146069
 30
0.0
  0
VERTEX
  5
E0
100
AcDbEntity
  8
EBENE_1
 62
   250
100
AcDbVertex
100
AcDb2dVertex
 10
91.937541
 20
223.645953
 30
0.0
  0
VERTEX
  5
E1
100
AcDbEntity
  8
EBENE_1
 62
   250
100
AcDbVertex
100
AcDb2dVertex
 10
91.937541
 20
230.646042
 30
0.0
  0
SEQEND
  5
E2
100
AcDbEntity
  8
EBENE_1
 62
   250
  0
LINE
  5
CA
100
AcDbEntity
  8
EBENE_1
 62
   250
100
AcDbLine
 10
89.437435
 20
220.645964
 30
0.0
 11
89.437435
 21
210.645885
 31
0.0
  0
LINE
  5
C9
100
AcDbEntity
  8
EBENE_1
 62
   250
100
AcDbLine
 10
87.93744
 20
220.645964
 30
0.0
 11
87.93744
 21
210.645885
 31
0.0
  0
LINE
  5
C8
100
AcDbEntity
  8
EBENE_1
 62
   250
100
AcDbLine
 10
86.437446
 20
220.645964
 30
0.0
 11
86.437446
 21
210.645885
 31
0.0
  0
LINE
  5
C7
100
AcDbEntity
  8
EBENE_1
 62
   250
100
AcDbLine
 10
84.937451
 20
220.645964
 30
0.0
 11
84.937451
 21
210.645885
 31
0.0
  0
LINE
  5
C6
100
AcDbEntity
  8
EBENE_1
 62
   250
100
AcDbLine
 10
83.437457
 20
220.645964
 30
0.0
 11
83.437457
 21
210.645885
 31
0.0
  0
LINE
  5
C5
100
AcDbEntity
  8
EBENE_1
 62
   250
100
AcDbLine
 10
81.937462
 20
220.645964
 30
0.0
 11
81.937462
 21
210.645885
 31
0.0
  0
LINE
  5
C4
100
AcDbEntity
  8
EBENE_1
 62
   250
100
AcDbLine
 10
80.437467
 20
220.645964
 30
0.0
 11
80.437467
 21
210.645885
 31
0.0
  0
LINE
  5
C3
100
AcDbEntity
  8
EBENE_1
 62
   250
100
AcDbLine
 10
78.937473
 20
220.645964
 30
0.0
 11
78.937473
 21
210.645885
 31
0.0
  0
LINE
  5
C2
100
AcDbEntity
  8
EBENE_1
 62
   250
100
AcDbLine
 10
77.437478
 20
220.645964
 30
0.0
 11
77.437478
 21
210.645885
 31
0.0
  0
LINE
  5
C1
100
AcDbEntity
  8
EBENE_1
 62
   250
100
AcDbLine
 10
75.937484
 20
220.645964
 30
0.0
 11
75.937484
 21
210.645885
 31
0.0
  0
LINE
  5
C0
100
AcDbEntity
  8
EBENE_1
 62
   250
100
AcDbLine
 10
74.437489
 20
220.645964
 30
0.0
 11
74.437489
 21
210.645885
 31
0.0
  0
LINE
  5
BF
100
AcDbEntity
  8
EBENE_1
 62
   250
100
AcDbLine
 10
72.937495
 20
220.645964
 30
0.0
 11
72.937495
 21
210.645885
 31
0.0
  0
LINE
  5
BE
100
AcDbEntity
  8
EBENE_1
 62
   250
100
AcDbLine
 10
71.4375
 20
220.645964
 30
0.0
 11
71.4375
 21
210.645885
 31
0.0
  0
LINE
  5
BD
100
AcDbEntity
  8
EBENE_1
 62
   250
100
AcDbLine
 10
69.937505
 20
220.645964
 30
0.0
 11
69.937505
 21
210.645885
 31
0.0
  0
LINE
  5
BC
100
AcDbEntity
  8
EBENE_1
 62
   250
100
AcDbLine
 10
68.437511
 20
220.645964
 30
0.0
 11
68.437511
 21
210.645885
 31
0.0
  0
LINE
  5
BB
100
AcDbEntity
  8
EBENE_1
 62
   250
100
AcDbLine
 10
66.937516
 20
209.646118
 30
0.0
 11
91.937541
 21
209.646118
 31
0.0
  0
POLYLINE
  5
B6
100
AcDbEntity
  8
EBENE_1
 62
   250
100
AcDb2dPolyline
 66
     1
 10
0.0
 20
0.0
 30
0.0
  0
VERTEX
  5
B7
100
AcDbEntity
  8
EBENE_1
 62
   250
100
AcDbVertex
100
AcDb2dVertex
 10
66.937516
 20
209.646118
 30
0.0
  0
VERTEX
  5
B8
100
AcDbEntity
  8
EBENE_1
 62
   250
100
AcDbVertex
100
AcDb2dVertex
 10
66.937516
 20
170.645915
 30
0.0
  0
VERTEX
  5
B9
100
AcDbEntity
  8
EBENE_1
 62
   250
100
AcDbVertex
100
AcDb2dVertex
 10
112.937465
 20
170.645915
 30
0.0
  0
SEQEND
  5
BA
100
AcDbEntity
  8
EBENE_1
 62
   250
  0
POLYLINE
  5
B1
100
AcDbEntity
  8
EBENE_1
 62
   250
100
AcDb2dPolyline
 66
     1
 10
0.0
 20
0.0
 30
0.0
  0
VERTEX
  5
B2
100
AcDbEntity
  8
EBENE_1
 62
   250
100
AcDbVertex
100
AcDb2dVertex
 10
112.937465
 20
195.645939
 30
0.0
  0
VERTEX
  5
B3
100
AcDbEntity
  8
EBENE_1
 62
   250
100
AcDbVertex
100
AcDb2dVertex
 10
91.937541
 20
195.645939
 30
0.0
  0
VERTEX
  5
B4
100
AcDbEntity
  8
EBENE_1
 62
   250
100
AcDbVertex
100
AcDb2dVertex
 10
91.937541
 20
209.646118
 30
0.0
  0
SEQEND
  5
B5
100
AcDbEntity
  8
EBENE_1
 62
   250
  0
LINE
  5
B0
100
AcDbEntity
  8
EBENE_1
 62
   250
100
AcDbLine
 10
115.938143
 20
194.145945
 30
0.0
 11
127.9381
 21
194.145945
 31
0.0
  0
LINE
  5
AF
100
AcDbEntity
  8
EBENE_1
 62
   250
100
AcDbLine
 10
115.938143
 20
194.646172
 30
0.0
 11
127.9381
 21
194.646172
 31
0.0
  0
LINE
  5
AE
100
AcDbEntity
  8
EBENE_1
 62
   250
100
AcDbLine
 10
115.938143
 20
192.64595
 30
0.0
 11
127.9381
 21
192.64595
 31
0.0
  0
LINE
  5
AD
100
AcDbEntity
  8
EBENE_1
 62
   250
100
AcDbLine
 10
115.938143
 20
193.146178
 30
0.0
 11
127.9381
 21
193.146178
 31
0.0
  0
LINE
  5
AC
100
AcDbEntity
  8
EBENE_1
 62
   250
100
AcDbLine
 10
115.938143
 20
191.145955
 30
0.0
 11
127.9381
 21
191.145955
 31
0.0
  0
LINE
  5
AB
100
AcDbEntity
  8
EBENE_1
 62
   250
100
AcDbLine
 10
115.938143
 20
191.646183
 30
0.0
 11
127.9381
 21
191.646183
 31
0.0
  0
LINE
  5
AA
100
AcDbEntity
  8
EBENE_1
 62
   250
100
AcDbLine
 10
115.938143
 20
189.645961
 30
0.0
 11
127.9381
 21
189.645961
 31
0.0
  0
LINE
  5
A9
100
AcDbEntity
  8
EBENE_1
 62
   250
100
AcDbLine
 10
115.938143
 20
190.146189
 30
0.0
 11
127.9381
 21
190.146189
 31
0.0
  0
LINE
  5
A8
100
AcDbEntity
  8
EBENE_1
 62
   250
100
AcDbLine
 10
115.938143
 20
188.145966
 30
0.0
 11
127.9381
 21
188.145966
 31
0.0
  0
LINE
  5
A7
100
AcDbEntity
  8
EBENE_1
 62
   250
100
AcDbLine
 10
115.938143
 20
188.646194
 30
0.0
 11
127.9381
 21
188.646194
 31
0.0
  0
LINE
  5
A6
100
AcDbEntity
  8
EBENE_1
 62
   250
100
AcDbLine
 10
115.938143
 20
186.645972
 30
0.0
 11
127.9381
 21
186.645972
 31
0.0
  0
LINE
  5
A5
100
AcDbEntity
  8
EBENE_1
 62
   250
100
AcDbLine
 10
115.938143
 20
187.1462
 30
0.0
 11
127.9381
 21
187.1462
 31
0.0
  0
LINE
  5
A4
100
AcDbEntity
  8
EBENE_1
 62
   250
100
AcDbLine
 10
115.938143
 20
185.145977
 30
0.0
 11
127.9381
 21
185.145977
 31
0.0
  0
LINE
  5
A3
100
AcDbEntity
  8
EBENE_1
 62
   250
100
AcDbLine
 10
115.938143
 20
185.646205
 30
0.0
 11
127.9381
 21
185.646205
 31
0.0
  0
LINE
  5
A2
100
AcDbEntity
  8
EBENE_1
 62
   250
100
AcDbLine
 10
115.938143
 20
183.645983
 30
0.0
 11
127.9381
 21
183.645983
 31
0.0
  0
LINE
  5
A1
100
AcDbEntity
  8
EBENE_1
 62
   250
100
AcDbLine
 10
115.938143
 20
184.14621
 30
0.0
 11
127.9381
 21
184.14621
 31
0.0
  0
LINE
  5
A0
100
AcDbEntity
  8
EBENE_1
 62
   250
100
AcDbLine
 10
115.938143
 20
182.145988
 30
0.0
 11
127.9381
 21
182.145988
 31
0.0
  0
LINE
  5
9F
100
AcDbEntity
  8
EBENE_1
 62
   250
100
AcDbLine
 10
115.938143
 20
182.646216
 30
0.0
 11
127.9381
 21
182.646216
 31
0.0
  0
LINE
  5
9E
100
AcDbEntity
  8
EBENE_1
 62
   250
100
AcDbLine
 10
115.938143
 20
180.645993
 30
0.0
 11
127.9381
 21
180.645993
 31
0.0
  0
LINE
  5
9D
100
AcDbEntity
  8
EBENE_1
 62
   250
100
AcDbLine
 10
115.938143
 20
181.146221
 30
0.0
 11
127.9381
 21
181.146221
 31
0.0
  0
LINE
  5
9C
100
AcDbEntity
  8
EBENE_1
 62
   250
100
AcDbLine
 10
115.938143
 20
179.145999
 30
0.0
 11
127.9381
 21
179.145999
 31
0.0
  0
LINE
  5
9B
100
AcDbEntity
  8
EBENE_1
 62
   250
100
AcDbLine
 10
115.938143
 20
179.646227
 30
0.0
 11
127.9381
 21
179.646227
 31
0.0
  0
LINE
  5
9A
100
AcDbEntity
  8
EBENE_1
 62
   250
100
AcDbLine
 10
115.938143
 20
177.646004
 30
0.0
 11
127.9381
 21
177.646004
 31
0.0
  0
LINE
  5
99
100
AcDbEntity
  8
EBENE_1
 62
   250
100
AcDbLine
 10
115.938143
 20
178.146232
 30
0.0
 11
127.9381
 21
178.146232
 31
0.0
  0
LINE
  5
98
100
AcDbEntity
  8
EBENE_1
 62
   250
100
AcDbLine
 10
115.938143
 20
176.14601
 30
0.0
 11
127.9381
 21
176.14601
 31
0.0
  0
LINE
  5
97
100
AcDbEntity
  8
EBENE_1
 62
   250
100
AcDbLine
 10
115.938143
 20
176.646238
 30
0.0
 11
127.9381
 21
176.646238
 31
0.0
  0
LINE
  5
96
100
AcDbEntity
  8
EBENE_1
 62
   250
100
AcDbLine
 10
115.938143
 20
174.646015
 30
0.0
 11
127.9381
 21
174.646015
 31
0.0
  0
LINE
  5
95
100
AcDbEntity
  8
EBENE_1
 62
   250
100
AcDbLine
 10
115.938143
 20
175.145898
 30
0.0
 11
127.9381
 21
175.145898
 31
0.0
  0
LINE
  5
94
100
AcDbEntity
  8
EBENE_1
 62
   250
100
AcDbLine
 10
115.938143
 20
173.146021
 30
0.0
 11
127.9381
 21
173.146021
 31
0.0
  0
LINE
  5
93
100
AcDbEntity
  8
EBENE_1
 62
   250
100
AcDbLine
 10
115.938143
 20
173.645904
 30
0.0
 11
127.9381
 21
173.645904
 31
0.0
  0
LINE
  5
92
100
AcDbEntity
  8
EBENE_1
 62
   250
100
AcDbLine
 10
115.938143
 20
171.646026
 30
0.0
 11
127.9381
 21
171.646026
 31
0.0
  0
LINE
  5
91
100
AcDbEntity
  8
EBENE_1
 62
   250
100
AcDbLine
 10
115.938143
 20
172.145909
 30
0.0
 11
127.9381
 21
172.145909
 31
0.0
  0
LINE
  5
90
100
AcDbEntity
  8
EBENE_1
 62
   250
100
AcDbLine
 10
128.937866
 20
170.645915
 30
0.0
 11
146.937801
 21
170.645915
 31
0.0
  0
LINE
  5
8F
100
AcDbEntity
  8
EBENE_1
 62
   250
100
AcDbLine
 10
128.937866
 20
171.646026
 30
0.0
 11
146.937801
 21
171.646026
 31
0.0
  0
LINE
  5
8E
100
AcDbEntity
  8
EBENE_1
 62
   250
100
AcDbLine
 10
128.937866
 20
173.645904
 30
0.0
 11
146.937801
 21
173.645904
 31
0.0
  0
LINE
  5
8D
100
AcDbEntity
  8
EBENE_1
 62
   250
100
AcDbLine
 10
128.937866
 20
174.646015
 30
0.0
 11
146.937801
 21
174.646015
 31
0.0
  0
LINE
  5
8C
100
AcDbEntity
  8
EBENE_1
 62
   250
100
AcDbLine
 10
128.937866
 20
176.646238
 30
0.0
 11
146.937801
 21
176.646238
 31
0.0
  0
LINE
  5
8B
100
AcDbEntity
  8
EBENE_1
 62
   250
100
AcDbLine
 10
128.937866
 20
177.646004
 30
0.0
 11
146.937801
 21
177.646004
 31
0.0
  0
LINE
  5
8A
100
AcDbEntity
  8
EBENE_1
 62
   250
100
AcDbLine
 10
128.937866
 20
179.646227
 30
0.0
 11
146.937801
 21
179.646227
 31
0.0
  0
LINE
  5
89
100
AcDbEntity
  8
EBENE_1
 62
   250
100
AcDbLine
 10
128.937866
 20
180.645993
 30
0.0
 11
146.937801
 21
180.645993
 31
0.0
  0
LINE
  5
88
100
AcDbEntity
  8
EBENE_1
 62
   250
100
AcDbLine
 10
128.937866
 20
182.646216
 30
0.0
 11
146.937801
 21
182.646216
 31
0.0
  0
LINE
  5
87
100
AcDbEntity
  8
EBENE_1
 62
   250
100
AcDbLine
 10
128.937866
 20
183.645983
 30
0.0
 11
146.937801
 21
183.645983
 31
0.0
  0
LINE
  5
86
100
AcDbEntity
  8
EBENE_1
 62
   250
100
AcDbLine
 10
128.937866
 20
185.646205
 30
0.0
 11
145.919086
 21
185.646205
 31
0.0
  0
LINE
  5
85
100
AcDbEntity
  8
EBENE_1
 62
   250
100
AcDbLine
 10
128.937866
 20
186.645972
 30
0.0
 11
145.953882
 21
186.645972
 31
0.0
  0
LINE
  5
84
100
AcDbEntity
  8
EBENE_1
 62
   250
100
AcDbLine
 10
128.937866
 20
188.646194
 30
0.0
 11
145.988677
 21
188.646194
 31
0.0
  0
LINE
  5
83
100
AcDbEntity
  8
EBENE_1
 62
   250
100
AcDbLine
 10
128.937866
 20
189.645961
 30
0.0
 11
145.891181
 21
189.645961
 31
0.0
  0
LINE
  5
82
100
AcDbEntity
  8
EBENE_1
 62
   250
100
AcDbLine
 10
128.937866
 20
191.646183
 30
0.0
 11
145.919086
 21
191.646183
 31
0.0
  0
LINE
  5
81
100
AcDbEntity
  8
EBENE_1
 62
   250
100
AcDbLine
 10
128.937866
 20
192.64595
 30
0.0
 11
146.937801
 21
192.64595
 31
0.0
  0
LINE
  5
80
100
AcDbEntity
  8
EBENE_1
 62
   250
100
AcDbLine
 10
128.937866
 20
194.646172
 30
0.0
 11
146.937801
 21
194.646172
 31
0.0
  0
LINE
  5
7F
100
AcDbEntity
  8
EBENE_1
 62
   250
100
AcDbLine
 10
128.937866
 20
195.645939
 30
0.0
 11
146.937801
 21
195.645939
 31
0.0
  0
LINE
  5
7E
100
AcDbEntity
  8
EBENE_1
 62
   250
100
AcDbLine
 10
115.938143
 20
196.146167
 30
0.0
 11
115.938143
 21
170.146031
 31
0.0
  0
POLYLINE
  5
78
100
AcDbEntity
  8
EBENE_1
 62
   250
100
AcDb2dPolyline
 66
     1
 10
0.0
 20
0.0
 30
0.0
  0
VERTEX
  5
79
100
AcDbEntity
  8
EBENE_1
 62
   250
100
AcDbVertex
100
AcDb2dVertex
 10
112.937465
 20
171.646026
 30
0.0
  0
VERTEX
  5
7A
100
AcDbEntity
  8
EBENE_1
 62
   250
100
AcDbVertex
100
AcDb2dVertex
 10
114.438148
 20
171.646026
 30
0.0
  0
VERTEX
  5
7B
100
AcDbEntity
  8
EBENE_1
 62
   250
100
AcDbVertex
100
AcDb2dVertex
 10
115.938143
 20
170.146031
 30
0.0
  0
VERTEX
  5
7C
100
AcDbEntity
  8
EBENE_1
 62
   250
100
AcDbVertex
100
AcDb2dVertex
 10
116.93791
 20
170.146031
 30
0.0
  0
SEQEND
  5
7D
100
AcDbEntity
  8
EBENE_1
 62
   250
  0
LINE
  5
77
100
AcDbEntity
  8
EBENE_1
 62
   250
100
AcDbLine
 10
114.438148
 20
171.646026
 30
0.0
 11
114.438148
 21
194.646172
 31
0.0
  0
POLYLINE
  5
6D
100
AcDbEntity
  8
EBENE_1
 62
   250
100
AcDb2dPolyline
 66
     1
 10
0.0
 20
0.0
 30
0.0
  0
VERTEX
  5
6E
100
AcDbEntity
  8
EBENE_1
 62
   250
100
AcDbVertex
100
AcDb2dVertex
 10
116.93791
 20
170.146031
 30
0.0
  0
VERTEX
  5
6F
100
AcDbEntity
  8
EBENE_1
 62
   250
100
AcDbVertex
100
AcDb2dVertex
 10
127.9381
 20
170.146031
 30
0.0
  0
VERTEX
  5
70
100
AcDbEntity
  8
EBENE_1
 62
   250
100
AcDbVertex
100
AcDb2dVertex
 10
128.937866
 20
169.14592
 30
0.0
  0
VERTEX
  5
71
100
AcDbEntity
  8
EBENE_1
 62
   250
100
AcDbVertex
100
AcDb2dVertex
 10
146.937801
 20
169.14592
 30
0.0
  0
VERTEX
  5
72
100
AcDbEntity
  8
EBENE_1
 62
   250
100
AcDbVertex
100
AcDb2dVertex
 10
146.937801
 20
197.145934
 30
0.0
  0
VERTEX
  5
73
100
AcDbEntity
  8
EBENE_1
 62
   250
100
AcDbVertex
100
AcDb2dVertex
 10
128.937866
 20
197.145934
 30
0.0
  0
VERTEX
  5
74
100
AcDbEntity
  8
EBENE_1
 62
   250
100
AcDbVertex
100
AcDb2dVertex
 10
127.9381
 20
196.146167
 30
0.0
  0
VERTEX
  5
75
100
AcDbEntity
  8
EBENE_1
 62
   250
100
AcDbVertex
100
AcDb2dVertex
 10
115.938143
 20
196.146167
 30
0.0
  0
SEQEND
  5
76
100
AcDbEntity
  8
EBENE_1
 62
   250
  0
POLYLINE
  5
67
100
AcDbEntity
  8
EBENE_1
 62
   250
100
AcDb2dPolyline
 66
     1
 10
0.0
 20
0.0
 30
0.0
  0
VERTEX
  5
68
100
AcDbEntity
  8
EBENE_1
 62
   250
100
AcDbVertex
100
AcDb2dVertex
 10
112.937465
 20
194.646172
 30
0.0
  0
VERTEX
  5
69
100
AcDbEntity
  8
EBENE_1
 62
   250
100
AcDbVertex
100
AcDb2dVertex
 10
114.438148
 20
194.646172
 30
0.0
  0
VERTEX
  5
6A
100
AcDbEntity
  8
EBENE_1
 62
   250
100
AcDbVertex
100
AcDb2dVertex
 10
115.938143
 20
196.146167
 30
0.0
  0
VERTEX
  5
6B
100
AcDbEntity
  8
EBENE_1
 62
   250
100
AcDbVertex
100
AcDb2dVertex
 10
116.93791
 20
196.146167
 30
0.0
  0
SEQEND
  5
6C
100
AcDbEntity
  8
EBENE_1
 62
   250
  0
LINE
  5
66
100
AcDbEntity
  8
EBENE_1
 62
   250
100
AcDbLine
 10
112.937465
 20
195.645939
 30
0.0
 11
112.937465
 21
170.645915
 31
0.0
  0
LINE
  5
65
100
AcDbEntity
  8
EBENE_1
 62
   250
100
AcDbLine
 10
101.437391
 20
195.645939
 30
0.0
 11
101.437391
 21
170.645915
 31
0.0
  0
LINE
  5
64
100
AcDbEntity
  8
EBENE_1
 62
   250
100
AcDbLine
 10
127.9381
 20
196.146167
 30
0.0
 11
127.9381
 21
170.146031
 31
0.0
  0
LINE
  5
63
100
AcDbEntity
  8
EBENE_1
 62
   250
100
AcDbLine
 10
98.437402
 20
195.645939
 30
0.0
 11
98.437402
 21
170.645915
 31
0.0
  0
LINE
  5
62
100
AcDbEntity
  8
EBENE_1
 62
   250
100
AcDbLine
 10
84.937451
 20
209.646118
 30
0.0
 11
84.937451
 21
186.146088
 31
0.0
  0
LINE
  5
61
100
AcDbEntity
  8
EBENE_1
 62
   250
100
AcDbLine
 10
68.937394
 20
209.646118
 30
0.0
 11
68.937394
 21
172.145909
 31
0.0
  0
LINE
  5
60
100
AcDbEntity
  8
EBENE_1
 62
   250
100
AcDbLine
 10
70.937617
 20
209.646118
 30
0.0
 11
70.937617
 21
173.645904
 31
0.0
  0
LINE
  5
5F
100
AcDbEntity
  8
EBENE_1
 62
   250
100
AcDbLine
 10
72.937495
 20
209.646118
 30
0.0
 11
72.937495
 21
174.646015
 31
0.0
  0
LINE
  5
5E
100
AcDbEntity
  8
EBENE_1
 62
   250
100
AcDbLine
 10
74.937717
 20
209.646118
 30
0.0
 11
74.937717
 21
174.646015
 31
0.0
  0
LINE
  5
5D
100
AcDbEntity
  8
EBENE_1
 62
   250
100
AcDbLine
 10
78.937473
 20
209.646118
 30
0.0
 11
78.937473
 21
174.646015
 31
0.0
  0
LINE
  5
5C
100
AcDbEntity
  8
EBENE_1
 62
   250
100
AcDbLine
 10
80.937695
 20
209.646118
 30
0.0
 11
80.937695
 21
174.646015
 31
0.0
  0
LINE
  5
5B
100
AcDbEntity
  8
EBENE_1
 62
   250
100
AcDbLine
 10
82.937573
 20
209.646118
 30
0.0
 11
82.937573
 21
174.646015
 31
0.0
  0
LINE
  5
5A
100
AcDbEntity
  8
EBENE_1
 62
   250
100
AcDbLine
 10
76.937595
 20
209.646118
 30
0.0
 11
76.937595
 21
174.646015
 31
0.0
  0
POLYLINE
  5
54
100
AcDbEntity
  8
EBENE_1
 62
   250
100
AcDb2dPolyline
 66
     1
 10
0.0
 20
0.0
 30
0.0
  0
VERTEX
  5
55
100
AcDbEntity
  8
EBENE_1
 62
   250
100
AcDbVertex
100
AcDb2dVertex
 10
66.937516
 20
170.645915
 30
0.0
  0
VERTEX
  5
56
100
AcDbEntity
  8
EBENE_1
 62
   250
100
AcDbVertex
100
AcDb2dVertex
 10
71.937383
 20
174.646015
 30
0.0
  0
VERTEX
  5
57
100
AcDbEntity
  8
EBENE_1
 62
   250
100
AcDbVertex
100
AcDb2dVertex
 10
86.937674
 20
174.646015
 30
0.0
  0
VERTEX
  5
58
100
AcDbEntity
  8
EBENE_1
 62
   250
100
AcDbVertex
100
AcDb2dVertex
 10
91.937541
 20
170.645915
 30
0.0
  0
SEQEND
  5
59
100
AcDbEntity
  8
EBENE_1
 62
   250
  0
LINE
  5
53
100
AcDbEntity
  8
EBENE_1
 62
   250
100
AcDbLine
 10
66.937516
 20
210.645885
 30
0.0
 11
91.937541
 21
210.645885
 31
0.0
  0
LINE
  5
52
100
AcDbEntity
  8
EBENE_1
 62
   250
100
AcDbLine
 10
66.937516
 20
222.645841
 30
0.0
 11
91.937541
 21
222.645841
 31
0.0
  0
LINE
  5
51
100
AcDbEntity
  8
EBENE_1
 62
   250
100
AcDbLine
 10
66.937516
 20
220.645964
 30
0.0
 11
91.937541
 21
220.645964
 31
0.0
  0
LINE
  5
50
100
AcDbEntity
  8
EBENE_1
 62
   250
100
AcDbLine
 10
66.937516
 20
221.646075
 30
0.0
 11
91.937541
 21
221.646075
 31
0.0
  0
SPLINE
  5
4F
100
AcDbEntity
  8
EBENE_1
 62
   250
100
AcDbSpline
210
0.0
220
0.0
230
1.0
 70
     8
 71
     3
 72
     8
 73
     4
 74
     0
 42
0.00000001
 43
0.00000001
 40
0.0
 40
0.0
 40
0.0
 40
0.0
 40
1.0
 40
1.0
 40
1.0
 40
1.0
 10
68.937738715277774
 20
232.64592013888887
 30
0.0
 10
67.833241102430549
 20
232.64557562934024
 30
0.0
 10
66.937860785590274
 20
231.75019531249998
 30
0.0
 10
66.937516276041663
 20
230.64569769965274
 30
0.0
  0
LINE
  5
4E
100
AcDbEntity
  8
EBENE_1
 62
   250
100
AcDbLine
 10
89.937663
 20
232.64592
 30
0.0
 11
68.937394
 21
232.64592
 31
0.0
  0
SPLINE
  5
4D
100
AcDbEntity
  8
EBENE_1
 62
   250
100
AcDbSpline
210
0.0
220
0.0
230
1.0
 70
     8
 71
     3
 72
     8
 73
     4
 74
     0
 42
0.00000001
 43
0.00000001
 40
0.0
 40
0.0
 40
0.0
 40
0.0
 40
1.0
 40
1.0
 40
1.0
 40
1.0
 10
91.937540690104157
 20
230.64569769965274
 30
0.0
 10
91.937196180555546
 20
231.75019531249998
 30
0.0
 10
91.041815863715271
 20
232.64557562934024
 30
0.0
 10
89.937318250868046
 20
232.64592013888887
 30
0.0
  0
LINE
  5
4C
100
AcDbEntity
  8
EBENE_1
 62
   250
100
AcDbLine
 10
66.937516
 20
223.645953
 30
0.0
 11
91.937541
 21
223.645953
 31
0.0
  0
LINE
  5
4B
100
AcDbEntity
  8
EBENE_1
 62
   250
100
AcDbLine
 10
91.937541
 20
194.145945
 30
0.0
 11
96.437524
 21
194.145945
 31
0.0
  0
LINE
  5
4A
100
AcDbEntity
  8
EBENE_1
 62
   250
100
AcDbLine
 10
91.937541
 20
172.145909
 30
0.0
 11
96.437524
 21
172.145909
 31
0.0
  0
POLYLINE
  5
44
100
AcDbEntity
  8
EBENE_1
 62
   250
100
AcDb2dPolyline
 66
     1
 10
0.0
 20
0.0
 30
0.0
 70
     1
  0
VERTEX
  5
45
100
AcDbEntity
  8
EBENE_1
 62
   250
100
AcDbVertex
100
AcDb2dVertex
 10
96.437524
 20
170.645915
 30
0.0
  0
VERTEX
  5
46
100
AcDbEntity
  8
EBENE_1
 62
   250
100
AcDbVertex
100
AcDb2dVertex
 10
98.437402
 20
170.645915
 30
0.0
  0
VERTEX
  5
47
100
AcDbEntity
  8
EBENE_1
 62
   250
100
AcDbVertex
100
AcDb2dVertex
 10
98.437402
 20
173.645904
 30
0.0
  0
VERTEX
  5
48
100
AcDbEntity
  8
EBENE_1
 62
   250
100
AcDbVertex
100
AcDb2dVertex
 10
96.437524
 20
173.645904
 30
0.0
  0
SEQEND
  5
49
100
AcDbEntity
  8
EBENE_1
 62
   250
  0
LINE
  5
43
100
AcDbEntity
  8
EBENE_1
 62
   250
100
AcDbLine
 10
99.937397
 20
195.645939
 30
0.0
 11
99.937397
 21
170.645915
 31
0.0
  0
POLYLINE
  5
3D
100
AcDbEntity
  8
EBENE_1
 62
   250
100
AcDb2dPolyline
 66
     1
 10
0.0
 20
0.0
 30
0.0
 70
     1
  0
VERTEX
  5
3E
100
AcDbEntity
  8
EBENE_1
 62
   250
100
AcDbVertex
100
AcDb2dVertex
 10
96.437524
 20
192.64595
 30
0.0
  0
VERTEX
  5
3F
100
AcDbEntity
  8
EBENE_1
 62
   250
100
AcDbVertex
100
AcDb2dVertex
 10
98.437402
 20
192.64595
 30
0.0
  0
VERTEX
  5
40
100
AcDbEntity
  8
EBENE_1
 62
   250
100
AcDbVertex
100
AcDb2dVertex
 10
98.437402
 20
195.645939
 30
0.0
  0
VERTEX
  5
41
100
AcDbEntity
  8
EBENE_1
 62
   250
100
AcDbVertex
100
AcDb2dVertex
 10
96.437524
 20
195.645939
 30
0.0
  0
SEQEND
  5
42
100
AcDbEntity
  8
EBENE_1
 62
   250
  0
LINE
  5
3C
100
AcDbEntity
  8
EBENE_1
 62
   250
100
AcDbLine
 10
128.937866
 20
197.145934
 30
0.0
 11
128.937866
 21
169.14592
 31
0.0
  0
LINE
  5
3B
100
AcDbEntity
  8
EBENE_1
 62
   250
100
AcDbLine
 10
147.470413
 20
181.471611
 30
0.0
 11
147.470413
 21
169.410331
 31
0.0
  0
LINE
  5
3A
100
AcDbEntity
  8
EBENE_1
 62
   250
100
AcDbLine
 10
149.890248
 20
169.241522
 30
0.0
 11
146.930566
 21
169.233253
 31
0.0
  0
LINE
  5
39
100
AcDbEntity
  8
EBENE_1
 62
   250
100
AcDbLine
 10
147.388075
 20
196.993833
 30
0.0
 11
147.388075
 21
195.707262
 31
0.0
  0
LINE
  5
38
100
AcDbEntity
  8
EBENE_1
 62
   250
100
AcDbLine
 10
66.867409
 20
229.364983
 30
0.0
 11
66.867409
 21
242.646688
 31
0.0
  0
POLYLINE
  5
33
100
AcDbEntity
  8
EBENE_1
 62
   250
100
AcDb2dPolyline
 66
     1
 10
0.0
 20
0.0
 30
0.0
 70
     1
  0
VERTEX
  5
34
100
AcDbEntity
  8
EBENE_1
 62
   250
100
AcDbVertex
100
AcDb2dVertex
 10
67.189181
 20
241.583531
 30
0.0
  0
VERTEX
  5
35
100
AcDbEntity
  8
EBENE_1
 62
   250
100
AcDbVertex
100
AcDb2dVertex
 10
71.190142
 20
242.580542
 30
0.0
  0
VERTEX
  5
36
100
AcDbEntity
  8
EBENE_1
 62
   250
100
AcDbVertex
100
AcDb2dVertex
 10
71.190142
 20
240.586521
 30
0.0
  0
SEQEND
  5
37
100
AcDbEntity
  8
EBENE_1
 62
   250
  0
HATCH
  5
32
100
AcDbEntity
  8
EBENE_1
 62
   250
100
AcDbHatch
 10
0.0
 20
0.0
 30
0.0
210
0.0
220
0.0
230
1.0
  2
SOLID
 70
     1
 71
     0
 91
        1
 92
        3
 72
     0
 73
     1
 93
        3
 10
67.189180501302076
 20
241.58353135850692
 10
71.190142144097223
 20
242.58054199218748
 10
71.190142144097223
 20
240.58652072482636
 97
        0
 75
     0
 76
     1
 98
        1
 10
0.0
 20
0.0
  0
POLYLINE
  5
2D
100
AcDbEntity
  8
EBENE_1
 62
   250
100
AcDb2dPolyline
 66
     1
 10
0.0
 20
0.0
 30
0.0
 70
     1
  0
VERTEX
  5
2E
100
AcDbEntity
  8
EBENE_1
 62
   250
100
AcDbVertex
100
AcDb2dVertex
 10
156.849685
 20
241.888078
 30
0.0
  0
VERTEX
  5
2F
100
AcDbEntity
  8
EBENE_1
 62
   250
100
AcDbVertex
100
AcDb2dVertex
 10
152.848551
 20
240.891067
 30
0.0
  0
VERTEX
  5
30
100
AcDbEntity
  8
EBENE_1
 62
   250
100
AcDbVertex
100
AcDb2dVertex
 10
152.848551
 20
242.885088
 30
0.0
  0
SEQEND
  5
31
100
AcDbEntity
  8
EBENE_1
 62
   250
  0
HATCH
  5
2C
100
AcDbEntity
  8
EBENE_1
 62
   250
100
AcDbHatch
 10
0.0
 20
0.0
 30
0.0
210
0.0
220
0.0
230
1.0
  2
SOLID
 70
     1
 71
     0
 91
        1
 92
        3
 72
     0
 73
     1
 93
        3
 10
156.8496853298611
 20
241.88807779947913
 10
152.84855143229166
 20
240.8910671657986
 10
152.84855143229166
 20
242.88508843315969
 97
        0
 75
     0
 76
     1
 98
        1
 10
0.0
 20
0.0
  0
LINE
  5
2B
100
AcDbEntity
  8
EBENE_1
 62
   250
100
AcDbLine
 10
103.708571
 20
241.653295
 30
0.0
 11
68.82474
 21
241.653295
 31
0.0
  0
MTEXT
  5
2A
100
AcDbEntity
  8
EBENE_1
 62
   250
100
AcDbMText
 10
106.327705
 20
243.834614
 30
0.0
 40
3.674769
 41
0.0
 71
     1
 72
     2
  1
\fMyriad Roman|b0|i0;90 
  7
STD
210
0.0
220
0.0
230
1.0
 11
1.000001
 21
0.0
 31
0.0
 73
     1
 44
1.0
  0
LINE
  5
29
100
AcDbEntity
  8
EBENE_1
 62
   250
100
AcDbLine
 10
155.961884
 20
241.765432
 30
0.0
 11
113.509351
 21
241.765432
 31
0.0
  0
ENDSEC
  0
SECTION
  2
OBJECTS
  0
DICTIONARY
  5
19
100
AcDbDictionary
280
     0
281
     1
  3
ACAD_GROUP
350
1A
  3
ACAD_MLINESTYLE
350
1B
  3
ACAD_LAYOUT
350
1E
  3
ACAD_PLOTSETTINGS
350
22
  3
ACAD_PLOTSTYLENAME
350
1F
  3
ACAD_WIPEOUT_VARS
350
23
  0
DICTIONARY
  5
1A
102
{ACAD_REACTORS
330
19
102
}
100
AcDbDictionary
280
     0
281
     1
  0
DICTIONARY
  5
1B
102
{ACAD_REACTORS
330
19
102
}
100
AcDbDictionary
280
     0
281
     1
  3
Standard
350
1C
  0
MLINESTYLE
  5
1C
102
{ACAD_REACTORS
330
1B
102
}
100
AcDbMlineStyle
  2
Standard
 70
     0
  3

 62
     0
 51
90.0
 52
90.0
 71
     2
 49
0.5
 62
   256
  6
BYLAYER
 49
-0.5
 62
   256
  6
BYLAYER
  0
ACDBDICTIONARYWDFLT
  5
1F
102
{ACAD_REACTORS
330
19
102
}
100
AcDbDictionary
281
     1
  3
Normal
350
1D
100
AcDbDictionaryWithDefault
340
1D
  0
ACDBPLACEHOLDER
  5
1D
102
{ACAD_REACTORS
330
1F
102
}
  0
LAYOUT
  5
20
102
{ACAD_REACTORS
330
1E
102
}
100
AcDbPlotSettings
  1

  2

  4

  6

 40
0.0
 41
0.0
 42
0.0
 43
0.0
 44
0.0
 45
0.0
 46
0.0
 47
0.0
 48
0.0
 49
0.0
140
0.0
141
0.0
142
1.0
143
1.0
 70
  1024
 72
     0
 73
     0
 74
     0
  7

 75
     0
147
1.0
148
0.0
149
0.0
100
AcDbLayout
  1
Model
 70
     0
 71
     0
 10
0.0
 20
0.0
 11
0.0
 21
0.0
 12
0.0
 22
0.0
 32
0.0
 14
0.0
 24
0.0
 34
0.0
 15
0.0
 25
0.0
 35
0.0
146
0.0
 13
0.0
 23
0.0
 33
0.0
 16
0.0
 26
0.0
 36
0.0
 17
0.0
 27
0.0
 37
0.0
 76
     0
330
A
331
0
345
0
346
0
  0
LAYOUT
  5
21
102
{ACAD_REACTORS
330
1E
102
}
100
AcDbPlotSettings
  1

  2

  4

  6

 40
0.0
 41
0.0
 42
0.0
 43
0.0
 44
0.0
 45
0.0
 46
0.0
 47
0.0
 48
0.0
 49
0.0
140
0.0
141
0.0
142
1.0
143
1.0
 70
     0
 72
     0
 73
     0
 74
     0
  7

 75
     0
147
1.0
148
0.0
149
0.0
100
AcDbLayout
  1
Layout1
 70
     0
 71
     0
 10
0.0
 20
0.0
 11
0.0
 21
0.0
 12
0.0
 22
0.0
 32
0.0
 14
0.0
 24
0.0
 34
0.0
 15
0.0
 25
0.0
 35
0.0
146
0.0
 13
0.0
 23
0.0
 33
0.0
 16
0.0
 26
0.0
 36
0.0
 17
0.0
 27
0.0
 37
0.0
 76
     0
330
B
331
0
345
0
346
0
  0
DICTIONARY
  5
1E
102
{ACAD_REACTORS
330
19
102
}
100
AcDbDictionary
280
     0
281
     1
  3
Layout1
350
21
  3
Model
350
20
  0
DICTIONARY
  5
22
102
{ACAD_REACTORS
330
19
102
}
100
AcDbDictionary
280
     0
281
     1
  0
WIPEOUTVARIABLES
  5
23
100
AcDbWipeoutVariables
 70
     1
  0
ENDSEC
  0
EOF
