  0
SECTION
  2
HEADER
  9
$ACADVER
  1
AC1015
  9
$ACADMAINTVER
 70
     6
  9
$DWGCODEPAGE
  3
ANSI_932
  9
$INSBASE
 10
0.0
 20
0.0
 30
0.0
  9
$EXTMIN
 10
60.879316
 20
85.033225
 30
1.000000E+20
  9
$EXTMAX
 10
144.815967
 20
210.677235
 30
-1.000000E+20
  9
$LIMMIN
 10
60.879316
 20
85.033225
  9
$LIMMAX
 10
144.815967
 20
210.677235
  9
$ORTHOMODE
 70
     0
  9
$REGENMODE
 70
     1
  9
$FILLMODE
 70
     1
  9
$QTEXTMODE
 70
     0
  9
$MIRRTEXT
 70
     1
  9
$LTSCALE
 40
1.0
  9
$ATTMODE
 70
     1
  9
$TEXTSIZE
 40
0.2
  9
$TRACEWID
 40
0.05
  9
$TEXTSTYLE
  7
Standard
  9
$CLAYER
  8
0
  9
$CELTYPE
  6
Continuous
  9
$CECOLOR
 62
   256
  9
$CELTSCALE
 40
1.0
  9
$DISPSILH
 70
     0
  9
$DIMSCALE
 40
1.0
  9
$DIMASZ
 40
0.18
  9
$DIMEXO
 40
0.0625
  9
$DIMDLI
 40
0.38
  9
$DIMRND
 40
0.0
  9
$DIMDLE
 40
0.0
  9
$DIMEXE
 40
0.18
  9
$DIMTP
 40
0.0
  9
$DIMTM
 40
0.0
  9
$DIMTXT
 40
0.18
  9
$DIMCEN
 40
0.09
  9
$DIMTSZ
 40
0.0
  9
$DIMTOL
 70
     0
  9
$DIMLIM
 70
     0
  9
$DIMTIH
 70
     1
  9
$DIMTOH
 70
     1
  9
$DIMSE1
 70
     0
  9
$DIMSE2
 70
     0
  9
$DIMTAD
 70
     0
  9
$DIMZIN
 70
     0
  9
$DIMBLK
  1

  9
$DIMASO
 70
     1
  9
$DIMSHO
 70
     1
  9
$DIMPOST
  1

  9
$DIMAPOST
  1

  9
$DIMALT
 70
     0
  9
$DIMALTD
 70
     2
  9
$DIMALTF
 40
25.4
  9
$DIMLFAC
 40
1.0
  9
$DIMTOFL
 70
     0
  9
$DIMTVP
 40
0.0
  9
$DIMTIX
 70
     0
  9
$DIMSOXD
 70
     0
  9
$DIMSAH
 70
     0
  9
$DIMBLK1
  1

  9
$DIMBLK2
  1

  9
$DIMSTYLE
  2
Standard
  9
$DIMCLRD
 70
     0
  9
$DIMCLRE
 70
     0
  9
$DIMCLRT
 70
     0
  9
$DIMTFAC
 40
1.0
  9
$DIMGAP
 40
0.09
  9
$DIMJUST
 70
     0
  9
$DIMSD1
 70
     0
  9
$DIMSD2
 70
     0
  9
$DIMTOLJ
 70
     1
  9
$DIMTZIN
 70
     0
  9
$DIMALTZ
 70
     0
  9
$DIMALTTZ
 70
     0
  9
$DIMUPT
 70
     0
  9
$DIMDEC
 70
     4
  9
$DIMTDEC
 70
     4
  9
$DIMALTU
 70
     2
  9
$DIMALTTD
 70
     2
  9
$DIMTXSTY
  7
Standard
  9
$DIMAUNIT
 70
     0
  9
$DIMADEC
 70
     0
  9
$DIMALTRND
 40
0.0
  9
$DIMAZIN
 70
     0
  9
$DIMDSEP
 70
     0
  9
$DIMATFIT
 70
     3
  9
$DIMFRAC
 70
     0
  9
$DIMLDRBLK
  1

  9
$DIMLUNIT
 70
     2
  9
$DIMLWD
 70
     0
  9
$DIMLWE
 70
     0
  9
$DIMTMOVE
 70
     0
  9
$LUNITS
 70
     2
  9
$LUPREC
 70
     4
  9
$SKETCHINC
 40
0.1
  9
$FILLETRAD
 40
0.0
  9
$AUNITS
 70
     0
  9
$AUPREC
 70
     0
  9
$MENU
  1
acad
  9
$ELEVATION
 40
0.0
  9
$PELEVATION
 40
0.0
  9
$THICKNESS
 40
0.0
  9
$LIMCHECK
 70
     0
  9
$CHAMFERA
 40
0.0
  9
$CHAMFERB
 40
0.0
  9
$CHAMFERC
 40
0.0
  9
$CHAMFERD
 40
0.0
  9
$SKPOLY
 70
     0
  9
$TDCREATE
 40
0.000000000
  9
$TDUCREATE
 40
0.000000000
  9
$TDUPDATE
 40
0.000000000
  9
$TDUUPDATE
 40
0.000000000
  9
$TDINDWG
 40
0.0000000000
  9
$TDUSRTIMER
 40
0.0000000000
  9
$USRTIMER
 70
     1
  9
$ANGBASE
 50
0.0
  9
$ANGDIR
 70
     0
  9
$PDMODE
 70
     0
  9
$PDSIZE
 40
0.0
  9
$PLINEWID
 40
0.0
  9
$SPLFRAME
 70
     0
  9
$SPLINETYPE
 70
     6
  9
$SPLINESEGS
 70
     8
  9
$HANDSEED
  5
1A5
  9
$SURFTAB1
 70
     6
  9
$SURFTAB2
 70
     6
  9
$SURFTYPE
 70
     6
  9
$SURFU
 70
     6
  9
$SURFV
 70
     6
  9
$UCSBASE
  2

  9
$UCSNAME
  2

  9
$UCSORG
 10
0.0
 20
0.0
 30
0.0
  9
$UCSXDIR
 10
1.0
 20
0.0
 30
0.0
  9
$UCSYDIR
 10
0.0
 20
1.0
 30
0.0
  9
$UCSORTHOREF
  2

  9
$UCSORTHOVIEW
 70
     0
  9
$UCSORGTOP
 10
0.0
 20
0.0
 30
0.0
  9
$UCSORGBOTTOM
 10
0.0
 20
0.0
 30
0.0
  9
$UCSORGLEFT
 10
0.0
 20
0.0
 30
0.0
  9
$UCSORGRIGHT
 10
0.0
 20
0.0
 30
0.0
  9
$UCSORGFRONT
 10
0.0
 20
0.0
 30
0.0
  9
$UCSORGBACK
 10
0.0
 20
0.0
 30
0.0
  9
$PUCSBASE
  2

  9
$PUCSNAME
  2

  9
$PUCSORG
 10
0.0
 20
0.0
 30
0.0
  9
$PUCSXDIR
 10
1.0
 20
0.0
 30
0.0
  9
$PUCSYDIR
 10
0.0
 20
1.0
 30
0.0
  9
$PUCSORTHOREF
  2

  9
$PUCSORTHOVIEW
 70
     0
  9
$PUCSORGTOP
 10
0.0
 20
0.0
 30
0.0
  9
$PUCSORGBOTTOM
 10
0.0
 20
0.0
 30
0.0
  9
$PUCSORGLEFT
 10
0.0
 20
0.0
 30
0.0
  9
$PUCSORGRIGHT
 10
0.0
 20
0.0
 30
0.0
  9
$PUCSORGFRONT
 10
0.0
 20
0.0
 30
0.0
  9
$PUCSORGBACK
 10
0.0
 20
0.0
 30
0.0
  9
$USERI1
 70
     0
  9
$USERI2
 70
     0
  9
$USERI3
 70
     0
  9
$USERI4
 70
     0
  9
$USERI5
 70
     0
  9
$USERR1
 40
0.0
  9
$USERR2
 40
0.0
  9
$USERR3
 40
0.0
  9
$USERR4
 40
0.0
  9
$USERR5
 40
0.0
  9
$WORLDVIEW
 70
     1
  9
$SHADEDGE
 70
     3
  9
$SHADEDIF
 70
    70
  9
$TILEMODE
 70
     1
  9
$MAXACTVP
 70
    16
  9
$PINSBASE
 10
0.0
 20
0.0
 30
0.0
  9
$PLIMCHECK
 70
     0
  9
$PEXTMIN
 10
1.000000E+20
 20
1.000000E+20
 30
1.000000E+20
  9
$PEXTMAX
 10
-1.000000E+20
 20
-1.000000E+20
 30
-1.000000E+20
  9
$PLIMMIN
 10
0.0
 20
0.0
  9
$PLIMMAX
 10
12.0
 20
9.0
  9
$UNITMODE
 70
     0
  9
$VISRETAIN
 70
     0
  9
$PLINEGEN
 70
     1
  9
$PSLTSCALE
 70
     0
  9
$TREEDEPTH
 70
  3020
  9
$CMLSTYLE
  2
Standard
  9
$CMLJUST
 70
     0
  9
$CMLSCALE
 40
1.0
  9
$PROXYGRAPHICS
 70
     0
  9
$MEASUREMENT
 70
     0
  9
$CELWEIGHT
370
     0
  9
$ENDCAPS
280
     0
  9
$JOINSTYLE
280
     0
  9
$LWDISPLAY
290
     0
  9
$INSUNITS
 70
     0
  9
$HYPERLINKBASE
  1

  9
$XEDIT
290
     1
  9
$CEPSNTYPE
380
     0
  9
$PSTYLEMODE
290
     1
  9
$FINGERPRINTGUID
  2

  9
$VERSIONGUID
  2

  9
$EXTNAMES
290
     1
  9
$PSVPSCALE
 40
0.0
  0
ENDSEC
  0
SECTION
  2
CLASSES
  0
CLASS
  1
LWPOLYLINE
  2
AcDbPolyline
  3
"AutoCAD"
 90
        0
280
     0
281
     1
  0
CLASS
  1
IMAGE
  2
AcDbRasterImage
  3
ISM
 90
      127
280
     0
281
     1
  0
CLASS
  1
OLE2FRAME
  2
AcDbOle2Frame
  3
""
 90
        0
280
     0
281
     1
  0
CLASS
  1
HATCH
  2
AcDbHatch
  3
"ACAD_SEDONA"
 90
        0
280
     0
281
     1
  0
CLASS
  1
DICTIONARYVAR
  2
AcDbDictionaryVar
  3
"AutoCAD"
 90
        0
280
     0
281
     0
  0
CLASS
  1
RASTERVARIABLES
  2
AcDbRasterVariables
  3
ISM
 90
        0
280
     0
281
     0
  0
CLASS
  1
IMAGEDEF
  2
AcDbRasterImageDef
  3
ISM
 90
        0
280
     0
281
     0
  0
CLASS
  1
IMAGEDEF_REACTOR
  2
AcDbRasterImageDefReactor
  3
ISM
 90
        1
280
     0
281
     0
  0
CLASS
  1
IDBUFFER
  2
AcDbIdBuffer
  3
"Acad"
 90
        0
280
     0
281
     0
  0
CLASS
  1
SPATIAL_FILTER
  2
AcDbSpatialFilter
  3
"Acad"
 90
        0
280
     0
281
     0
  0
CLASS
  1
XRECORD
  2
AcDbXrecord
  3
"<Built In>"
 90
        0
280
     0
281
     0
  0
CLASS
  1
SORTENTSTABLE
  2
AcDbSortentsTable
  3
"AutoCAD"
 90
        0
280
     0
281
     0
  0
CLASS
  1
LAYER_INDEX
  2
AcDbLayerIndex
  3
"Acad"
 90
        0
280
     0
281
     0
  0
CLASS
  1
SPATIAL_INDEX
  2
AcDbSpatialIndex
  3
"Acad"
 90
        0
280
     0
281
     0
  0
CLASS
  1
OBJECT_PTR
  2
CAseDLPNTableRecord
  3
"ASE-LPNTableRecord"
 90
        1
280
     0
281
     0
  0
CLASS
  1
LAYOUT
  2
AcDbLayout
  3
"AutoCAD 2000"
 90
        1
280
     0
281
     0
  0
CLASS
  1
PLOTSETTINGS
  2
AcDbPlotSettings
  3
"AutoCAD 2000"
 90
        1
280
     0
281
     0
  0
CLASS
  1
ACDBDICTIONARYWDFLT
  2
AcDbDictionaryWithDefault
  3
"AutoCAD 2000"
 90
        1
280
     0
281
     0
  0
CLASS
  1
ACDBPLACEHOLDER
  2
AcDbPlaceHolder
  3
"AutoCAD 2000"
 90
        1
280
     0
281
     0
  0
CLASS
  1
VBA_PROJECT
  2
AcDbVbaProject
  3
"acadvba"
 90
        1
280
     0
281
     0
  0
CLASS
  1
WIPEOUT
  2
AcDbWipeout
  3
WipeOut|AutoCAD Express Tool|expresstools@autodesk.com
 90
      127
280
     0
281
     1
  0
CLASS
  1
WIPEOUTVARIABLES
  2
AcDbWipeoutVariables
  3
WipeOut|AutoCAD Express Tool|expresstools@autodesk.com
 90
        0
280
     0
281
     0
  0
CLASS
  1
RTEXT
  2
RText
  3
RText|AutoCAD Express Tool|expresstools@autodesk.com
 90
        0
280
     0
281
     1
  0
CLASS
  1
ARCALIGNEDTEXT
  2
AcDbArcAlignedText
  3
ATEXT|AutoCAD Express Tool|expresstools@autodesk.com
 90
        0
280
     0
281
     1
  0
ENDSEC
  0
SECTION
  2
TABLES
  0
TABLE
  2
VPORT
  5
7
100
AcDbSymbolTable
 70
     1
  0
VPORT
  5
15
100
AcDbSymbolTableRecord
100
AcDbViewportTableRecord
  2
*ACTIVE
 70
     0
 10
0.0
 20
0.0
 11
1.0
 21
1.0
 12
6.591288
 22
4.579184
 13
0.0
 23
0.0
 14
1.0
 24
1.0
 15
0.0
 25
0.0
 16
0.0
 26
0.0
 36
1.0
 17
0.0
 27
0.0
 37
0.0
 40
9.158369
 41
0.688564
 42
50.0
 43
0.0
 44
0.0
 50
0.0
 51
0.0
 71
     0
 72
   100
 73
     1
 74
     1
 75
     0
 76
     0
 77
     0
 78
     0
281
     0
 65
     0
110
0.0
120
0.0
130
0.0
111
1.0
121
0.0
131
0.0
112
0.0
122
1.0
132
0.0
345
0
346
0
 79
     0
146
0.0
  0
ENDTAB
  0
TABLE
  2
LTYPE
  5
4
100
AcDbSymbolTable
 70
     3
  0
LTYPE
  5
11
100
AcDbSymbolTableRecord
100
AcDbLinetypeTableRecord
  2
ByBlock
 70
    64
  3

 72
    65
 73
     0
 40
0.0
  0
LTYPE
  5
12
100
AcDbSymbolTableRecord
100
AcDbLinetypeTableRecord
  2
ByLayer
 70
    64
  3

 72
    65
 73
     0
 40
0.0
  0
LTYPE
  5
13
100
AcDbSymbolTableRecord
100
AcDbLinetypeTableRecord
  2
Continuous
 70
    64
  3
Solid line
 72
    65
 73
     0
 40
0.0
  0
ENDTAB
  0
TABLE
  2
LAYER
  5
2
100
AcDbSymbolTable
 70
     2
  0
LAYER
  5
14
100
AcDbSymbolTableRecord
100
AcDbLayerTableRecord
  2
0
 70
     0
 62
     7
  6
Continuous
290
     1
370
    -3
390
1D
  0
LAYER
  5
28
100
AcDbSymbolTableRecord
100
AcDbLayerTableRecord
  2
EBENE_1
 70
     0
 62
   160
  6
Continuous
290
     1
370
    -3
390
1F
  0
ENDTAB
  0
TABLE
  2
STYLE
  5
3
100
AcDbSymbolTable
 70
     5
  0
STYLE
  5
17
100
AcDbSymbolTableRecord
100
AcDbTextStyleTableRecord
  2
Standard
 70
     0
 40
0.0
 41
1.0
 50
0.0
 71
     0
 42
0.0
  3
txt
  4

  0
STYLE
  5
24
100
AcDbSymbolTableRecord
100
AcDbTextStyleTableRecord
  2
STD
 70
     0
 40
0.0
 41
1.0
 50
0.0
 71
     0
 42
0.0
  3
txt
  4

  0
STYLE
  5
25
100
AcDbSymbolTableRecord
100
AcDbTextStyleTableRecord
  2
TATESTD
 70
     4
 40
0.0
 41
1.0
 50
0.0
 71
     0
 42
0.0
  3
txt
  4

  0
STYLE
  5
26
100
AcDbSymbolTableRecord
100
AcDbTextStyleTableRecord
  2
KANJISTD
 70
     0
 40
0.0
 41
1.0
 50
0.0
 71
     0
 42
0.0
  3
txt
  4
extfont
  0
STYLE
  5
27
100
AcDbSymbolTableRecord
100
AcDbTextStyleTableRecord
  2
KANJITATE
 70
     4
 40
0.0
 41
1.0
 50
0.0
 71
     0
 42
0.0
  3
txt
  4
extfont
  0
ENDTAB
  0
TABLE
  2
VIEW
  5
5
100
AcDbSymbolTable
 70
     0
  0
ENDTAB
  0
TABLE
  2
UCS
  5
6
100
AcDbSymbolTable
 70
     0
  0
ENDTAB
  0
TABLE
  2
APPID
  5
8
100
AcDbSymbolTable
 70
     1
  0
APPID
  5
16
100
AcDbSymbolTableRecord
100
AcDbRegAppTableRecord
  2
ACAD
 70
     0
  0
ENDTAB
  0
TABLE
  2
DIMSTYLE
  5
9
100
AcDbSymbolTable
 70
     1
100
AcDbDimStyleTable
 71
     0
  0
DIMSTYLE
105
18
100
AcDbSymbolTableRecord
100
AcDbDimStyleTableRecord
  2
Standard
 70
     0
  3

  4

 40
1.0
 41
0.18
 42
0.0625
 43
0.38
 44
0.18
 45
0.0
 46
0.0
 47
0.0
 48
0.0
 71
     0
 72
     0
 73
     1
 74
     1
 75
     0
 76
     0
 77
     0
 78
     0
 79
     0
140
0.18
141
0.09
142
0.0
143
25.4
144
1.0
145
0.0
146
1.0
147
0.09
148
0.0
170
     0
171
     2
172
     0
173
     0
174
     0
175
     0
176
     0
177
     0
178
     0
179
     0
271
     4
272
     4
273
     2
274
     2
275
     0
276
     0
277
     2
278
    46
279
     0
280
     0
281
     0
282
     0
283
     1
284
     0
285
     0
286
     0
288
     0
340
17
341
0
342
0
343
0
344
0
371
    -2
372
    -2
  0
ENDTAB
  0
TABLE
  2
BLOCK_RECORD
  5
1
100
AcDbSymbolTable
 70
     0
  0
BLOCK_RECORD
  5
A
100
AcDbSymbolTableRecord
100
AcDbBlockTableRecord
  2
*MODEL_SPACE
340
20
  0
BLOCK_RECORD
  5
B
100
AcDbSymbolTableRecord
100
AcDbBlockTableRecord
  2
*PAPER_SPACE
340
21
  0
ENDTAB
  0
ENDSEC
  0
SECTION
  2
BLOCKS
  0
BLOCK
  5
D
100
AcDbEntity
  8
0
100
AcDbBlockBegin
  2
*MODEL_SPACE
 70
     0
 10
0.0
 20
0.0
 30
0.0
  3
*MODEL_SPACE
  1

  0
ENDBLK
  5
E
100
AcDbEntity
  8
0
100
AcDbBlockEnd
  0
BLOCK
  5
F
100
AcDbEntity
 67
     1
  8
0
100
AcDbBlockBegin
  2
*PAPER_SPACE
 70
     0
 10
0.0
 20
0.0
 30
0.0
  3
*PAPER_SPACE
  1

  0
ENDBLK
  5
10
100
AcDbEntity
 67
     1
  8
0
100
AcDbBlockEnd
  0
ENDSEC
  0
SECTION
  2
ENTITIES
  0
SPLINE
  5
1A4
100
AcDbEntity
  8
EBENE_1
 62
     7
100
AcDbSpline
210
0.0
220
0.0
230
1.0
 70
     8
 71
     3
 72
     8
 73
     4
 74
     0
 42
0.00000001
 43
0.00000001
 40
0.0
 40
0.0
 40
0.0
 40
0.0
 40
1.0
 40
1.0
 40
1.0
 40
1.0
 10
72.917340766059027
 20
96.648019748263877
 30
0.0
 10
68.771685112847223
 20
99.273871527777771
 30
0.0
 10
65.183962673611106
 20
102.70174153645833
 30
0.0
 10
62.372075737847219
 20
106.71252170138888
 30
0.0
  0
LINE
  5
1A3
100
AcDbEntity
  8
EBENE_1
 62
     7
100
AcDbLine
 10
61.828095
 20
127.895036
 30
0.0
 11
125.127246
 21
127.895036
 31
0.0
  0
LINE
  5
1A2
100
AcDbEntity
  8
EBENE_1
 62
     7
100
AcDbLine
 10
92.627077
 20
118.967415
 30
0.0
 11
92.627077
 21
157.8951
 31
0.0
  0
LINE
  5
1A1
100
AcDbEntity
  8
EBENE_1
 62
     7
100
AcDbLine
 10
92.627077
 20
97.563726
 30
0.0
 11
92.627077
 21
110.716412
 31
0.0
  0
SPLINE
  5
1A0
100
AcDbEntity
  8
EBENE_1
 62
     7
100
AcDbSpline
210
0.0
220
0.0
230
1.0
 70
     8
 71
     3
 72
     8
 73
     4
 74
     0
 42
0.00000001
 43
0.00000001
 40
0.0
 40
0.0
 40
0.0
 40
0.0
 40
1.0
 40
1.0
 40
1.0
 40
1.0
 10
117.52667643229165
 20
108.60181206597221
 30
0.0
 10
117.62796223958333
 20
108.73203667534722
 30
0.0
 10
117.72787000868054
 20
108.86295030381943
 30
0.0
 10
117.82708875868055
 20
108.99455295138888
 30
0.0
  0
SPLINE
  5
19F
100
AcDbEntity
  8
EBENE_1
 62
     7
100
AcDbSpline
210
0.0
220
0.0
230
1.0
 70
     8
 71
     3
 72
     8
 73
     4
 74
     0
 42
0.00000001
 43
0.00000001
 40
0.0
 40
0.0
 40
0.0
 40
0.0
 40
1.0
 40
1.0
 40
1.0
 40
1.0
 10
116.46283094618055
 20
107.30163302951388
 30
0.0
 10
116.67367078993054
 20
107.5441677517361
 30
0.0
 10
116.87968749999999
 20
107.79083658854165
 30
0.0
 10
117.0815700954861
 20
108.04095052083332
 30
0.0
  0
SPLINE
  5
19E
100
AcDbEntity
  8
EBENE_1
 62
     7
100
AcDbSpline
210
0.0
220
0.0
230
1.0
 70
     8
 71
     3
 72
     8
 73
     4
 74
     0
 42
0.00000001
 43
0.00000001
 40
0.0
 40
0.0
 40
0.0
 40
0.0
 40
1.0
 40
1.0
 40
1.0
 40
1.0
 10
115.11442057291666
 20
105.83815646701387
 30
0.0
 10
115.40656467013888
 20
106.13581271701388
 30
0.0
 10
115.69250759548611
 20
106.43898111979166
 30
0.0
 10
115.97224934895833
 20
106.74835069444444
 30
0.0
  0
SPLINE
  5
19D
100
AcDbEntity
  8
EBENE_1
 62
     7
100
AcDbSpline
210
0.0
220
0.0
230
1.0
 70
     8
 71
     3
 72
     8
 73
     4
 74
     0
 42
0.00000001
 43
0.00000001
 40
0.0
 40
0.0
 40
0.0
 40
0.0
 40
1.0
 40
1.0
 40
1.0
 40
1.0
 10
113.88521050347221
 20
104.64959852430555
 30
0.0
 10
114.11947699652777
 20
104.86388346354165
 30
0.0
 10
114.35029839409721
 20
105.08161349826388
 30
0.0
 10
114.57836371527777
 20
105.30278862847221
 30
0.0
  0
SPLINE
  5
19C
100
AcDbEntity
  8
EBENE_1
 62
     7
100
AcDbSpline
210
0.0
220
0.0
230
1.0
 70
     8
 71
     3
 72
     8
 73
     4
 74
     0
 42
0.00000001
 43
0.00000001
 40
0.0
 40
0.0
 40
0.0
 40
0.0
 40
1.0
 40
1.0
 40
1.0
 40
1.0
 10
112.63395182291666
 20
103.56508246527777
 30
0.0
 10
112.78071289062498
 20
103.68497178819443
 30
0.0
 10
112.92609592013888
 20
103.80623914930554
 30
0.0
 10
113.07010091145833
 20
103.92957356770832
 30
0.0
  0
SPLINE
  5
19B
100
AcDbEntity
  8
EBENE_1
 62
     7
100
AcDbSpline
210
0.0
220
0.0
230
1.0
 70
     8
 71
     3
 72
     8
 73
     4
 74
     0
 42
0.00000001
 43
0.00000001
 40
0.0
 40
0.0
 40
0.0
 40
0.0
 40
1.0
 40
1.0
 40
1.0
 40
1.0
 10
111.3578884548611
 20
102.56876085069443
 30
0.0
 10
111.6245388454861
 20
102.76513129340277
 30
0.0
 10
111.88705512152777
 20
102.96632486979166
 30
0.0
 10
112.14681532118054
 20
103.17165256076387
 30
0.0
  0
SPLINE
  5
19A
100
AcDbEntity
  8
EBENE_1
 62
     7
100
AcDbSpline
210
0.0
220
0.0
230
1.0
 70
     8
 71
     3
 72
     8
 73
     4
 74
     0
 42
0.00000001
 43
0.00000001
 40
0.0
 40
0.0
 40
0.0
 40
0.0
 40
1.0
 40
1.0
 40
1.0
 40
1.0
 10
110.31540256076389
 20
101.83013237847221
 30
0.0
 10
110.47043185763889
 20
101.93486328124999
 30
0.0
 10
110.62408311631944
 20
102.04097222222221
 30
0.0
 10
110.77635633680555
 20
102.1491482204861
 30
0.0
  0
CIRCLE
  5
199
100
AcDbEntity
  8
EBENE_1
 62
     7
100
AcDbCircle
 10
92.62699
 20
180.895074
 30
0.0
 40
6.499948
  0
CIRCLE
  5
198
100
AcDbEntity
  8
EBENE_1
 62
     7
100
AcDbCircle
 10
92.627077
 20
180.895074
 30
0.0
 40
10.000079
  0
CIRCLE
  5
197
100
AcDbEntity
  8
EBENE_1
 62
     7
100
AcDbCircle
 10
95.627066
 20
183.395007
 30
0.0
 40
0.353122
  0
HATCH
  5
196
100
AcDbEntity
  8
EBENE_1
 62
     7
100
AcDbHatch
 10
0.0
 20
0.0
 30
0.0
210
0.0
220
0.0
230
1.0
  2
SOLID
 70
     1
 71
     0
 91
        1
 92
        1
 93
        1
 72
     4
 94
        3
 73
     0
 74
     0
 95
       17
 96
       13
 40
0.0
 40
0.0
 40
0.0
 40
0.0
 40
1.0
 40
1.0
 40
1.0
 40
2.0
 40
2.0
 40
2.0
 40
3.0
 40
3.0
 40
3.0
 40
4.0
 40
4.0
 40
4.0
 40
4.0
 10
95.980187988281244
 20
183.39500732421874
 10
95.980187988281244
 20
183.58999972873264
 10
95.822058105468741
 20
183.74795735677083
 10
95.627065700954859
 20
183.74795735677083
 10
95.432073296440961
 20
183.74795735677083
 10
95.273943413628459
 20
183.58999972873264
 10
95.273943413628459
 20
183.39500732421874
 10
95.273943413628459
 20
183.20001491970484
 10
95.432073296440961
 20
183.04205729166665
 10
95.627065700954859
 20
183.04205729166665
 10
95.822058105468741
 20
183.04205729166665
 10
95.980187988281244
 20
183.20001491970484
 10
95.980187988281244
 20
183.39500732421874
 97
        0
 75
     0
 76
     1
 98
        1
 10
0.0
 20
0.0
  0
CIRCLE
  5
195
100
AcDbEntity
  8
EBENE_1
 62
     7
100
AcDbCircle
 10
96.627005
 20
180.895074
 30
0.0
 40
0.35295
  0
HATCH
  5
194
100
AcDbEntity
  8
EBENE_1
 62
     7
100
AcDbHatch
 10
0.0
 20
0.0
 30
0.0
210
0.0
220
0.0
230
1.0
  2
SOLID
 70
     1
 71
     0
 91
        1
 92
        1
 93
        1
 72
     4
 94
        3
 73
     0
 74
     0
 95
       17
 96
       13
 40
0.0
 40
0.0
 40
0.0
 40
0.0
 40
1.0
 40
1.0
 40
1.0
 40
2.0
 40
2.0
 40
2.0
 40
3.0
 40
3.0
 40
3.0
 40
4.0
 40
4.0
 40
4.0
 40
4.0
 10
96.979954698350681
 20
180.8950737847222
 10
96.979954698350681
 20
181.0900661892361
 10
96.82216932508679
 20
181.24802381727429
 10
96.627176920572907
 20
181.24802381727429
 10
96.432184516059024
 20
181.24802381727429
 10
96.274054633246521
 20
181.0900661892361
 10
96.274054633246521
 20
180.8950737847222
 10
96.274054633246521
 20
180.7000813802083
 10
96.432184516059024
 20
180.54212375217011
 10
96.627176920572907
 20
180.54212375217011
 10
96.82216932508679
 20
180.54212375217011
 10
96.979954698350681
 20
180.7000813802083
 10
96.979954698350681
 20
180.8950737847222
 97
        0
 75
     0
 76
     1
 98
        1
 10
0.0
 20
0.0
  0
CIRCLE
  5
193
100
AcDbEntity
  8
EBENE_1
 62
     7
100
AcDbCircle
 10
94.627127
 20
177.895085
 30
0.0
 40
0.35295
  0
HATCH
  5
192
100
AcDbEntity
  8
EBENE_1
 62
     7
100
AcDbHatch
 10
0.0
 20
0.0
 30
0.0
210
0.0
220
0.0
230
1.0
  2
SOLID
 70
     1
 71
     0
 91
        1
 92
        1
 93
        1
 72
     4
 94
        3
 73
     0
 74
     0
 95
       17
 96
       13
 40
0.0
 40
0.0
 40
0.0
 40
0.0
 40
1.0
 40
1.0
 40
1.0
 40
2.0
 40
2.0
 40
2.0
 40
3.0
 40
3.0
 40
3.0
 40
4.0
 40
4.0
 40
4.0
 40
4.0
 10
94.980076768663181
 20
177.89508463541665
 10
94.980076768663181
 20
178.08990478515622
 10
94.821946885850693
 20
178.24803466796874
 10
94.626954481336796
 20
178.24803466796874
 10
94.431962076822913
 20
178.24803466796874
 10
94.274176703559021
 20
178.08990478515622
 10
94.274176703559021
 20
177.89508463541665
 10
94.274176703559021
 20
177.70009223090275
 10
94.431962076822913
 20
177.54196234809027
 10
94.626954481336796
 20
177.54196234809027
 10
94.821946885850693
 20
177.54196234809027
 10
94.980076768663181
 20
177.70009223090275
 10
94.980076768663181
 20
177.89508463541665
 97
        0
 75
     0
 76
     1
 98
        1
 10
0.0
 20
0.0
  0
CIRCLE
  5
191
100
AcDbEntity
  8
EBENE_1
 62
     7
100
AcDbCircle
 10
92.627077
 20
180.395018
 30
0.0
 40
0.353122
  0
HATCH
  5
190
100
AcDbEntity
  8
EBENE_1
 62
     7
100
AcDbHatch
 10
0.0
 20
0.0
 30
0.0
210
0.0
220
0.0
230
1.0
  2
SOLID
 70
     1
 71
     0
 91
        1
 92
        1
 93
        1
 72
     4
 94
        3
 73
     0
 74
     0
 95
       17
 96
       13
 40
0.0
 40
0.0
 40
0.0
 40
0.0
 40
1.0
 40
1.0
 40
1.0
 40
2.0
 40
2.0
 40
2.0
 40
3.0
 40
3.0
 40
3.0
 40
4.0
 40
4.0
 40
4.0
 40
4.0
 10
92.980198838975681
 20
180.39501817491319
 10
92.980198838975681
 20
180.59001057942706
 10
92.821724446614581
 20
180.74796820746525
 10
92.627076551649296
 20
180.74796820746525
 10
92.432084147135413
 20
180.74796820746525
 10
92.27395426432291
 20
180.59001057942706
 10
92.27395426432291
 20
180.39501817491319
 10
92.27395426432291
 20
180.20002577039929
 10
92.432084147135413
 20
180.0420681423611
 10
92.627076551649296
 20
180.0420681423611
 10
92.821724446614581
 20
180.0420681423611
 10
92.980198838975681
 20
180.20002577039929
 10
92.980198838975681
 20
180.39501817491319
 97
        0
 75
     0
 76
     1
 98
        1
 10
0.0
 20
0.0
  0
CIRCLE
  5
18F
100
AcDbEntity
  8
EBENE_1
 62
     7
100
AcDbCircle
 10
90.627026
 20
177.895085
 30
0.0
 40
0.35295
  0
HATCH
  5
18E
100
AcDbEntity
  8
EBENE_1
 62
     7
100
AcDbHatch
 10
0.0
 20
0.0
 30
0.0
210
0.0
220
0.0
230
1.0
  2
SOLID
 70
     1
 71
     0
 91
        1
 92
        1
 93
        1
 72
     4
 94
        3
 73
     0
 74
     0
 95
       17
 96
       13
 40
0.0
 40
0.0
 40
0.0
 40
0.0
 40
1.0
 40
1.0
 40
1.0
 40
2.0
 40
2.0
 40
2.0
 40
3.0
 40
3.0
 40
3.0
 40
4.0
 40
4.0
 40
4.0
 40
4.0
 10
90.97997639973957
 20
177.89508463541665
 10
90.97997639973957
 20
178.08990478515622
 10
90.82201877170138
 20
178.24803466796874
 10
90.627026367187497
 20
178.24803466796874
 10
90.4320339626736
 20
178.24803466796874
 10
90.27407633463541
 20
178.08990478515622
 10
90.27407633463541
 20
177.89508463541665
 10
90.27407633463541
 20
177.70009223090275
 10
90.4320339626736
 20
177.54196234809027
 10
90.627026367187497
 20
177.54196234809027
 10
90.82201877170138
 20
177.54196234809027
 10
90.97997639973957
 20
177.70009223090275
 10
90.97997639973957
 20
177.89508463541665
 97
        0
 75
     0
 76
     1
 98
        1
 10
0.0
 20
0.0
  0
CIRCLE
  5
18D
100
AcDbEntity
  8
EBENE_1
 62
     7
100
AcDbCircle
 10
88.627062
 20
180.895074
 30
0.0
 40
0.353036
  0
HATCH
  5
18C
100
AcDbEntity
  8
EBENE_1
 62
     7
100
AcDbHatch
 10
0.0
 20
0.0
 30
0.0
210
0.0
220
0.0
230
1.0
  2
SOLID
 70
     1
 71
     0
 91
        1
 92
        1
 93
        1
 72
     4
 94
        3
 73
     0
 74
     0
 95
       17
 96
       13
 40
0.0
 40
0.0
 40
0.0
 40
0.0
 40
1.0
 40
1.0
 40
1.0
 40
2.0
 40
2.0
 40
2.0
 40
3.0
 40
3.0
 40
3.0
 40
4.0
 40
4.0
 40
4.0
 40
4.0
 10
88.98009847005207
 20
180.8950737847222
 10
88.98009847005207
 20
181.0900661892361
 10
88.821968587239581
 20
181.24802381727429
 10
88.626976182725684
 20
181.24802381727429
 10
88.431983778211801
 20
181.24802381727429
 10
88.274026150173597
 20
181.0900661892361
 10
88.274026150173597
 20
180.8950737847222
 10
88.274026150173597
 20
180.7000813802083
 10
88.431983778211801
 20
180.54212375217011
 10
88.626976182725684
 20
180.54212375217011
 10
88.821968587239581
 20
180.54212375217011
 10
88.98009847005207
 20
180.7000813802083
 10
88.98009847005207
 20
180.8950737847222
 97
        0
 75
     0
 76
     1
 98
        1
 10
0.0
 20
0.0
  0
CIRCLE
  5
18B
100
AcDbEntity
  8
EBENE_1
 62
     7
100
AcDbCircle
 10
89.627001
 20
183.395007
 30
0.0
 40
0.353036
  0
HATCH
  5
18A
100
AcDbEntity
  8
EBENE_1
 62
     7
100
AcDbHatch
 10
0.0
 20
0.0
 30
0.0
210
0.0
220
0.0
230
1.0
  2
SOLID
 70
     1
 71
     0
 91
        1
 92
        1
 93
        1
 72
     4
 94
        3
 73
     0
 74
     0
 95
       17
 96
       13
 40
0.0
 40
0.0
 40
0.0
 40
0.0
 40
1.0
 40
1.0
 40
1.0
 40
2.0
 40
2.0
 40
2.0
 40
3.0
 40
3.0
 40
3.0
 40
4.0
 40
4.0
 40
4.0
 40
4.0
 10
89.98003743489582
 20
183.39500732421874
 10
89.98003743489582
 20
183.58999972873264
 10
89.821907552083331
 20
183.74795735677083
 10
89.627087402343747
 20
183.74795735677083
 10
89.43209499782985
 20
183.74795735677083
 10
89.273965115017347
 20
183.58999972873264
 10
89.273965115017347
 20
183.39500732421874
 10
89.273965115017347
 20
183.20001491970484
 10
89.43209499782985
 20
183.04205729166665
 10
89.627087402343747
 20
183.04205729166665
 10
89.821907552083331
 20
183.04205729166665
 10
89.98003743489582
 20
183.20001491970484
 10
89.98003743489582
 20
183.39500732421874
 97
        0
 75
     0
 76
     1
 98
        1
 10
0.0
 20
0.0
  0
CIRCLE
  5
189
100
AcDbEntity
  8
EBENE_1
 62
     7
100
AcDbCircle
 10
92.627077
 20
184.895002
 30
0.0
 40
0.353122
  0
HATCH
  5
188
100
AcDbEntity
  8
EBENE_1
 62
     7
100
AcDbHatch
 10
0.0
 20
0.0
 30
0.0
210
0.0
220
0.0
230
1.0
  2
SOLID
 70
     1
 71
     0
 91
        1
 92
        1
 93
        1
 72
     4
 94
        3
 73
     0
 74
     0
 95
       17
 96
       13
 40
0.0
 40
0.0
 40
0.0
 40
0.0
 40
1.0
 40
1.0
 40
1.0
 40
2.0
 40
2.0
 40
2.0
 40
3.0
 40
3.0
 40
3.0
 40
4.0
 40
4.0
 40
4.0
 40
4.0
 10
92.980198838975681
 20
184.8950018988715
 10
92.980198838975681
 20
185.0899943033854
 10
92.821724446614581
 20
185.24812418619791
 10
92.627076551649296
 20
185.24812418619791
 10
92.432084147135413
 20
185.24812418619791
 10
92.27395426432291
 20
185.0899943033854
 10
92.27395426432291
 20
184.8950018988715
 10
92.27395426432291
 20
184.70000949435763
 10
92.432084147135413
 20
184.54205186631944
 10
92.627076551649296
 20
184.54205186631944
 10
92.821724446614581
 20
184.54205186631944
 10
92.980198838975681
 20
184.70000949435763
 10
92.980198838975681
 20
184.8950018988715
 97
        0
 75
     0
 76
     1
 98
        1
 10
0.0
 20
0.0
  0
CIRCLE
  5
187
100
AcDbEntity
  8
EBENE_1
 62
     7
100
AcDbCircle
 10
107.97446
 20
191.867617
 30
0.0
 40
0.353084
  0
HATCH
  5
186
100
AcDbEntity
  8
EBENE_1
 62
     7
100
AcDbHatch
 10
0.0
 20
0.0
 30
0.0
210
0.0
220
0.0
230
1.0
  2
SOLID
 70
     1
 71
     0
 91
        1
 92
        1
 93
        1
 72
     4
 94
        3
 73
     0
 74
     0
 95
       17
 96
       13
 40
0.0
 40
0.0
 40
0.0
 40
0.0
 40
1.0
 40
1.0
 40
1.0
 40
2.0
 40
2.0
 40
2.0
 40
3.0
 40
3.0
 40
3.0
 40
4.0
 40
4.0
 40
4.0
 40
4.0
 10
108.30622287326388
 20
191.9884535047743
 10
108.23938802083332
 20
192.17156032986108
 10
108.03681640625
 20
192.26630045572915
 10
107.85353732638887
 20
192.19946560329859
 10
107.67025824652777
 20
192.13280300564233
 10
107.57586263020832
 20
191.93005913628471
 10
107.64269748263888
 20
191.7467800564236
 10
107.70884331597222
 20
191.56350097656249
 10
107.91210394965277
 20
191.46927761501735
 10
108.09538302951388
 20
191.53611246744791
 10
108.27866210937499
 20
191.60277506510414
 10
108.37305772569444
 20
191.80517442491319
 10
108.30622287326388
 20
191.9884535047743
 97
        0
 75
     0
 76
     1
 98
        1
 10
0.0
 20
0.0
  0
CIRCLE
  5
185
100
AcDbEntity
  8
EBENE_1
 62
     7
100
AcDbCircle
 10
107.946555
 20
193.938033
 30
0.0
 40
0.353378
  0
HATCH
  5
184
100
AcDbEntity
  8
EBENE_1
 62
     7
100
AcDbHatch
 10
0.0
 20
0.0
 30
0.0
210
0.0
220
0.0
230
1.0
  2
SOLID
 70
     1
 71
     0
 91
        1
 92
        1
 93
        1
 72
     4
 94
        3
 73
     0
 74
     0
 95
       17
 96
       13
 40
0.0
 40
0.0
 40
0.0
 40
0.0
 40
1.0
 40
1.0
 40
1.0
 40
2.0
 40
2.0
 40
2.0
 40
3.0
 40
3.0
 40
3.0
 40
4.0
 40
4.0
 40
4.0
 40
4.0
 10
108.27866210937499
 20
194.05878363715277
 10
108.21182725694443
 20
194.24206271701388
 10
108.00856662326387
 20
194.336286078559
 10
107.82597656249999
 20
194.26979573567706
 10
107.64269748263888
 20
194.2031331380208
 10
107.54830186631943
 20
194.00056152343748
 10
107.61444769965277
 20
193.81728244357637
 10
107.68128255208332
 20
193.63400336371527
 10
107.88454318576387
 20
193.53960774739582
 10
108.067822265625
 20
193.60644259982638
 10
108.25041232638888
 20
193.67276068793402
 10
108.34480794270833
 20
193.87567681206596
 10
108.27866210937499
 20
194.05878363715277
 97
        0
 75
     0
 76
     1
 98
        1
 10
0.0
 20
0.0
  0
CIRCLE
  5
183
100
AcDbEntity
  8
EBENE_1
 62
     7
100
AcDbCircle
 10
106.626997
 20
192.89503
 30
0.0
 40
4.034982
  0
CIRCLE
  5
182
100
AcDbEntity
  8
EBENE_1
 62
     7
100
AcDbCircle
 10
106.626997
 20
192.89503
 30
0.0
 40
3.902001
  0
CIRCLE
  5
181
100
AcDbEntity
  8
EBENE_1
 62
     7
100
AcDbCircle
 10
106.627169
 20
192.89503
 30
0.0
 40
3.500131
  0
CIRCLE
  5
180
100
AcDbEntity
  8
EBENE_1
 62
     7
100
AcDbCircle
 10
104.638833
 20
192.734144
 30
0.0
 40
0.353135
  0
HATCH
  5
17F
100
AcDbEntity
  8
EBENE_1
 62
     7
100
AcDbHatch
 10
0.0
 20
0.0
 30
0.0
210
0.0
220
0.0
230
1.0
  2
SOLID
 70
     1
 71
     0
 91
        1
 92
        1
 93
        1
 72
     4
 94
        3
 73
     0
 74
     0
 95
       17
 96
       13
 40
0.0
 40
0.0
 40
0.0
 40
0.0
 40
1.0
 40
1.0
 40
1.0
 40
2.0
 40
2.0
 40
2.0
 40
3.0
 40
3.0
 40
3.0
 40
4.0
 40
4.0
 40
4.0
 40
4.0
 10
104.9706814236111
 20
192.85489501953123
 10
104.90384657118055
 20
193.03817409939234
 10
104.70144721137152
 20
193.13256971571178
 10
104.51816813151041
 20
193.06590711805555
 10
104.3348890516493
 20
192.99924452039929
 10
104.24049343532985
 20
192.79667290581597
 10
104.3069837782118
 20
192.61339382595483
 10
104.37381863064235
 20
192.43028700086805
 10
104.57639024522568
 20
192.33571912977428
 10
104.75966932508679
 20
192.40238172743054
 10
104.94312065972221
 20
192.4690443250868
 10
105.03682725694443
 20
192.67161593967012
 10
104.9706814236111
 20
192.85489501953123
 97
        0
 75
     0
 76
     1
 98
        1
 10
0.0
 20
0.0
  0
CIRCLE
  5
17E
100
AcDbEntity
  8
EBENE_1
 62
     7
100
AcDbCircle
 10
105.948055
 20
191.130194
 30
0.0
 40
0.353084
  0
HATCH
  5
17D
100
AcDbEntity
  8
EBENE_1
 62
     7
100
AcDbHatch
 10
0.0
 20
0.0
 30
0.0
210
0.0
220
0.0
230
1.0
  2
SOLID
 70
     1
 71
     0
 91
        1
 92
        1
 93
        1
 72
     4
 94
        3
 73
     0
 74
     0
 95
       17
 96
       13
 40
0.0
 40
0.0
 40
0.0
 40
0.0
 40
1.0
 40
1.0
 40
1.0
 40
2.0
 40
2.0
 40
2.0
 40
3.0
 40
3.0
 40
3.0
 40
4.0
 40
4.0
 40
4.0
 40
4.0
 10
106.27981770833333
 20
191.2510308159722
 10
106.21367187499999
 20
191.43430989583331
 10
106.01110026041665
 20
191.52887776692705
 10
105.82782118055555
 20
191.46221516927082
 10
105.64454210069444
 20
191.39555257161456
 10
105.54945746527777
 20
191.19263644748261
 10
105.61629231770833
 20
191.0093573676215
 10
105.68312717013887
 20
190.82625054253469
 10
105.88638780381943
 20
190.73202718098958
 10
106.06966688368054
 20
190.79868977864581
 10
106.25225694444444
 20
190.86535237630207
 10
106.34665256076389
 20
191.06775173611109
 10
106.27981770833333
 20
191.2510308159722
 97
        0
 75
     0
 76
     1
 98
        1
 10
0.0
 20
0.0
  0
CIRCLE
  5
17C
100
AcDbEntity
  8
EBENE_1
 62
     7
100
AcDbCircle
 10
80.280802
 20
192.293
 30
0.0
 40
0.352973
  0
HATCH
  5
17B
100
AcDbEntity
  8
EBENE_1
 62
     7
100
AcDbHatch
 10
0.0
 20
0.0
 30
0.0
210
0.0
220
0.0
230
1.0
  2
SOLID
 70
     1
 71
     0
 91
        1
 92
        1
 93
        1
 72
     4
 94
        3
 73
     0
 74
     0
 95
       17
 96
       13
 40
0.0
 40
0.0
 40
0.0
 40
0.0
 40
1.0
 40
1.0
 40
1.0
 40
2.0
 40
2.0
 40
2.0
 40
3.0
 40
3.0
 40
3.0
 40
4.0
 40
4.0
 40
4.0
 40
4.0
 10
80.612478298611109
 20
192.1722493489583
 10
80.679140896267356
 20
192.35552842881944
 10
80.58474527994791
 20
192.55792778862846
 10
80.401466200086801
 20
192.62476264105902
 10
80.218359374999991
 20
192.69142523871525
 10
80.015787760416657
 20
192.59702962239581
 10
79.94912516276041
 20
192.4137505425347
 10
79.882462565104163
 20
192.23047146267359
 10
79.976858181423609
 20
192.02807210286457
 10
80.160137261284717
 20
191.96140950520831
 10
80.343416341145826
 20
191.89474690755208
 10
80.545815700954847
 20
191.98914252387152
 10
80.612478298611109
 20
192.1722493489583
 97
        0
 75
     0
 76
     1
 98
        1
 10
0.0
 20
0.0
  0
CIRCLE
  5
17A
100
AcDbEntity
  8
EBENE_1
 62
     7
100
AcDbCircle
 10
78.025039
 20
191.241212
 30
0.0
 40
0.353054
  0
HATCH
  5
179
100
AcDbEntity
  8
EBENE_1
 62
     7
100
AcDbHatch
 10
0.0
 20
0.0
 30
0.0
210
0.0
220
0.0
230
1.0
  2
SOLID
 70
     1
 71
     0
 91
        1
 92
        1
 93
        1
 72
     4
 94
        3
 73
     0
 74
     0
 95
       17
 96
       13
 40
0.0
 40
0.0
 40
0.0
 40
0.0
 40
1.0
 40
1.0
 40
1.0
 40
2.0
 40
2.0
 40
2.0
 40
3.0
 40
3.0
 40
3.0
 40
4.0
 40
4.0
 40
4.0
 40
4.0
 10
78.356802029079859
 20
191.1204616970486
 10
78.423464626736106
 20
191.30356852213541
 10
78.32906901041666
 20
191.50614013671873
 10
78.145789930555551
 20
191.57280273437499
 10
77.962510850694443
 20
191.63946533203122
 10
77.759939236111109
 20
191.54506971571178
 10
77.693276638454847
 20
191.36196289062499
 10
77.6266140407986
 20
191.17868381076386
 10
77.721009657118046
 20
190.97611219618054
 10
77.904288736979154
 20
190.90927734374998
 10
78.087567816840277
 20
190.84261474609374
 10
78.290139431423597
 20
190.93718261718749
 10
78.356802029079859
 20
191.1204616970486
 97
        0
 75
     0
 76
     1
 98
        1
 10
0.0
 20
0.0
  0
CIRCLE
  5
178
100
AcDbEntity
  8
EBENE_1
 62
     7
100
AcDbCircle
 10
76.973166
 20
193.496889
 30
0.0
 40
0.352973
  0
HATCH
  5
177
100
AcDbEntity
  8
EBENE_1
 62
     7
100
AcDbHatch
 10
0.0
 20
0.0
 30
0.0
210
0.0
220
0.0
230
1.0
  2
SOLID
 70
     1
 71
     0
 91
        1
 92
        1
 93
        1
 72
     4
 94
        3
 73
     0
 74
     0
 95
       17
 96
       13
 40
0.0
 40
0.0
 40
0.0
 40
0.0
 40
1.0
 40
1.0
 40
1.0
 40
2.0
 40
2.0
 40
2.0
 40
3.0
 40
3.0
 40
3.0
 40
4.0
 40
4.0
 40
4.0
 40
4.0
 10
77.304842122395826
 20
193.37613796657985
 10
77.371676974826386
 20
193.55941704644096
 10
77.277109103732627
 20
193.76198866102428
 10
77.093830023871519
 20
193.82865125868054
 10
76.910723198784709
 20
193.8953138563368
 10
76.708151584201389
 20
193.80091824001735
 10
76.641488986545127
 20
193.61763916015624
 10
76.574654134114581
 20
193.43436008029511
 10
76.669222005208326
 20
193.23196072048609
 10
76.852328830295136
 20
193.16529812282985
 10
77.035607910156244
 20
193.09863552517359
 10
77.238179524739579
 20
193.19285888671874
 10
77.304842122395826
 20
193.37613796657985
 97
        0
 75
     0
 76
     1
 98
        1
 10
0.0
 20
0.0
  0
CIRCLE
  5
176
100
AcDbEntity
  8
EBENE_1
 62
     7
100
AcDbCircle
 10
78.626898
 20
192.894944
 30
0.0
 40
3.499945
  0
CIRCLE
  5
175
100
AcDbEntity
  8
EBENE_1
 62
     7
100
AcDbCircle
 10
78.626984
 20
192.894944
 30
0.0
 40
3.902013
  0
CIRCLE
  5
174
100
AcDbEntity
  8
EBENE_1
 62
     7
100
AcDbCircle
 10
78.626898
 20
192.894944
 30
0.0
 40
4.035001
  0
POLYLINE
  5
16C
100
AcDbEntity
  8
EBENE_1
 62
     7
100
AcDb2dPolyline
 66
     1
 10
0.0
 20
0.0
 30
0.0
  0
VERTEX
  5
16D
100
AcDbEntity
  8
EBENE_1
 62
     7
100
AcDbVertex
100
AcDb2dVertex
 10
117.627273
 20
200.160909
 30
0.0
  0
VERTEX
  5
16E
100
AcDbEntity
  8
EBENE_1
 62
     7
100
AcDbVertex
100
AcDb2dVertex
 10
117.627273
 20
154.89511
 30
0.0
  0
VERTEX
  5
16F
100
AcDbEntity
  8
EBENE_1
 62
     7
100
AcDbVertex
100
AcDb2dVertex
 10
107.127311
 20
154.89511
 30
0.0
  0
VERTEX
  5
170
100
AcDbEntity
  8
EBENE_1
 62
     7
100
AcDbVertex
100
AcDb2dVertex
 10
107.127311
 20
154.89511
 30
0.0
  0
VERTEX
  5
171
100
AcDbEntity
  8
EBENE_1
 62
     7
100
AcDbVertex
100
AcDb2dVertex
 10
67.627052
 20
154.89511
 30
0.0
  0
VERTEX
  5
172
100
AcDbEntity
  8
EBENE_1
 62
     7
100
AcDbVertex
100
AcDb2dVertex
 10
67.627052
 20
200.351078
 30
0.0
  0
SEQEND
  5
173
100
AcDbEntity
  8
EBENE_1
 62
     7
  0
LINE
  5
16B
100
AcDbEntity
  8
EBENE_1
 62
     7
100
AcDbLine
 10
70.17849
 20
202.895109
 30
0.0
 11
114.880843
 21
202.895109
 31
0.0
  0
CIRCLE
  5
16A
100
AcDbEntity
  8
EBENE_1
 62
     7
100
AcDbCircle
 10
115.127167
 20
149.941063
 30
0.0
 40
2.899737
  0
CIRCLE
  5
169
100
AcDbEntity
  8
EBENE_1
 62
     7
100
AcDbCircle
 10
114.877398
 20
105.597
 30
0.0
 40
2.900081
  0
CIRCLE
  5
168
100
AcDbEntity
  8
EBENE_1
 62
     7
100
AcDbCircle
 10
92.627077
 20
127.895036
 30
0.0
 40
4.0001
  0
CIRCLE
  5
167
100
AcDbEntity
  8
EBENE_1
 62
     7
100
AcDbCircle
 10
70.127072
 20
149.941063
 30
0.0
 40
2.899995
  0
CIRCLE
  5
166
100
AcDbEntity
  8
EBENE_1
 62
     7
100
AcDbCircle
 10
70.377013
 20
105.597
 30
0.0
 40
2.899995
  0
CIRCLE
  5
165
100
AcDbEntity
  8
EBENE_1
 62
     7
100
AcDbCircle
 10
92.627077
 20
127.895036
 30
0.0
 40
19.999985
  0
POLYLINE
  5
15A
100
AcDbEntity
  8
EBENE_1
 62
     7
100
AcDb2dPolyline
 66
     1
 10
0.0
 20
0.0
 30
0.0
 70
     1
  0
VERTEX
  5
15B
100
AcDbEntity
  8
EBENE_1
 62
     7
100
AcDbVertex
100
AcDb2dVertex
 10
65.126946
 20
103.141336
 30
0.0
  0
VERTEX
  5
15C
100
AcDbEntity
  8
EBENE_1
 62
     7
100
AcDbVertex
100
AcDb2dVertex
 10
65.126946
 20
152.648908
 30
0.0
  0
VERTEX
  5
15D
100
AcDbEntity
  8
EBENE_1
 62
     7
100
AcDbVertex
100
AcDb2dVertex
 10
67.329051
 20
154.89511
 30
0.0
  0
VERTEX
  5
15E
100
AcDbEntity
  8
EBENE_1
 62
     7
100
AcDbVertex
100
AcDb2dVertex
 10
117.924929
 20
154.89511
 30
0.0
  0
VERTEX
  5
15F
100
AcDbEntity
  8
EBENE_1
 62
     7
100
AcDbVertex
100
AcDb2dVertex
 10
120.127035
 20
152.648908
 30
0.0
  0
VERTEX
  5
160
100
AcDbEntity
  8
EBENE_1
 62
     7
100
AcDbVertex
100
AcDb2dVertex
 10
120.127035
 20
103.141336
 30
0.0
  0
VERTEX
  5
161
100
AcDbEntity
  8
EBENE_1
 62
     7
100
AcDbVertex
100
AcDb2dVertex
 10
117.381293
 20
100.394906
 30
0.0
  0
VERTEX
  5
162
100
AcDbEntity
  8
EBENE_1
 62
     7
100
AcDbVertex
100
AcDb2dVertex
 10
67.873032
 20
100.394906
 30
0.0
  0
VERTEX
  5
163
100
AcDbEntity
  8
EBENE_1
 62
     7
100
AcDbVertex
100
AcDb2dVertex
 10
65.126946
 20
103.141336
 30
0.0
  0
SEQEND
  5
164
100
AcDbEntity
  8
EBENE_1
 62
     7
  0
MTEXT
  5
159
100
AcDbEntity
  8
EBENE_1
 62
     7
100
AcDbMText
 10
74.163776
 20
120.983781
 30
0.0
 40
3.149802
 41
0.0
 71
     1
 72
     2
  1
\fMyriad Roman|b0|i0; 37.0 R
  7
STD
210
0.0
220
0.0
230
1.0
 11
1.000001
 21
0.0
 31
0.0
 73
     1
 44
1.0
  0
POLYLINE
  5
154
100
AcDbEntity
  8
EBENE_1
 62
     7
100
AcDb2dPolyline
 66
     1
 10
0.0
 20
0.0
 30
0.0
 70
     1
  0
VERTEX
  5
155
100
AcDbEntity
  8
EBENE_1
 62
     7
100
AcDbVertex
100
AcDb2dVertex
 10
118.299756
 20
145.770258
 30
0.0
  0
VERTEX
  5
156
100
AcDbEntity
  8
EBENE_1
 62
     7
100
AcDbVertex
100
AcDb2dVertex
 10
115.830311
 20
142.468479
 30
0.0
  0
VERTEX
  5
157
100
AcDbEntity
  8
EBENE_1
 62
     7
100
AcDbVertex
100
AcDb2dVertex
 10
114.568717
 20
144.013949
 30
0.0
  0
SEQEND
  5
158
100
AcDbEntity
  8
EBENE_1
 62
     7
  0
HATCH
  5
153
100
AcDbEntity
  8
EBENE_1
 62
     7
100
AcDbHatch
 10
0.0
 20
0.0
 30
0.0
210
0.0
220
0.0
230
1.0
  2
SOLID
 70
     1
 71
     0
 91
        1
 92
        3
 72
     0
 73
     1
 93
        3
 10
118.29975585937498
 20
145.77025824652776
 10
115.83031141493055
 20
142.46847873263889
 10
114.56871744791665
 20
144.01394856770833
 97
        0
 75
     0
 76
     1
 98
        1
 10
0.0
 20
0.0
  0
LINE
  5
152
100
AcDbEntity
  8
EBENE_1
 62
     7
100
AcDbLine
 10
106.55887
 20
137.527523
 30
0.0
 11
92.627077
 21
127.895036
 31
0.0
  0
MTEXT
  5
151
100
AcDbEntity
  8
EBENE_1
 62
     7
100
AcDbMText
 10
139.906476
 20
134.852062
 30
0.0
 40
3.674769
 41
0.0
 71
     1
 72
     2
  1
\fMyriad Roman|b0|i0; 102.5 
  7
STD
210
0.0
220
0.0
230
1.0
 11
0.0
 21
1.0
 31
0.0
 73
     1
 44
1.0
  0
POLYLINE
  5
14C
100
AcDbEntity
  8
EBENE_1
 62
     7
100
AcDb2dPolyline
 66
     1
 10
0.0
 20
0.0
 30
0.0
 70
     1
  0
VERTEX
  5
14D
100
AcDbEntity
  8
EBENE_1
 62
     7
100
AcDbVertex
100
AcDb2dVertex
 10
142.126725
 20
202.895109
 30
0.0
  0
VERTEX
  5
14E
100
AcDbEntity
  8
EBENE_1
 62
     7
100
AcDbVertex
100
AcDb2dVertex
 10
143.123736
 20
198.893975
 30
0.0
  0
VERTEX
  5
14F
100
AcDbEntity
  8
EBENE_1
 62
     7
100
AcDbVertex
100
AcDb2dVertex
 10
141.129715
 20
198.893975
 30
0.0
  0
SEQEND
  5
150
100
AcDbEntity
  8
EBENE_1
 62
     7
  0
HATCH
  5
14B
100
AcDbEntity
  8
EBENE_1
 62
     7
100
AcDbHatch
 10
0.0
 20
0.0
 30
0.0
210
0.0
220
0.0
230
1.0
  2
SOLID
 70
     1
 71
     0
 91
        1
 92
        3
 72
     0
 73
     1
 93
        3
 10
142.12672526041666
 20
202.89510904947915
 10
143.12373589409722
 20
198.8939751519097
 10
141.1297146267361
 20
198.8939751519097
 97
        0
 75
     0
 76
     1
 98
        1
 10
0.0
 20
0.0
  0
LINE
  5
14A
100
AcDbEntity
  8
EBENE_1
 62
     7
100
AcDbLine
 10
142.126725
 20
147.505208
 30
0.0
 11
142.126725
 21
202.895109
 31
0.0
  0
POLYLINE
  5
145
100
AcDbEntity
  8
EBENE_1
 62
     7
100
AcDb2dPolyline
 66
     1
 10
0.0
 20
0.0
 30
0.0
 70
     1
  0
VERTEX
  5
146
100
AcDbEntity
  8
EBENE_1
 62
     7
100
AcDbVertex
100
AcDb2dVertex
 10
142.126725
 20
100.394906
 30
0.0
  0
VERTEX
  5
147
100
AcDbEntity
  8
EBENE_1
 62
     7
100
AcDbVertex
100
AcDb2dVertex
 10
141.129715
 20
104.396039
 30
0.0
  0
VERTEX
  5
148
100
AcDbEntity
  8
EBENE_1
 62
     7
100
AcDbVertex
100
AcDb2dVertex
 10
143.123736
 20
104.396039
 30
0.0
  0
SEQEND
  5
149
100
AcDbEntity
  8
EBENE_1
 62
     7
  0
HATCH
  5
144
100
AcDbEntity
  8
EBENE_1
 62
     7
100
AcDbHatch
 10
0.0
 20
0.0
 30
0.0
210
0.0
220
0.0
230
1.0
  2
SOLID
 70
     1
 71
     0
 91
        1
 92
        3
 72
     0
 73
     1
 93
        3
 10
142.12672526041666
 20
100.39490559895832
 10
141.1297146267361
 20
104.39603949652776
 10
143.12373589409722
 20
104.39603949652776
 97
        0
 75
     0
 76
     1
 98
        1
 10
0.0
 20
0.0
  0
LINE
  5
143
100
AcDbEntity
  8
EBENE_1
 62
     7
100
AcDbLine
 10
142.126725
 20
134.575765
 30
0.0
 11
142.126725
 21
100.394906
 31
0.0
  0
LINE
  5
142
100
AcDbEntity
  8
EBENE_1
 62
     7
100
AcDbLine
 10
107.050141
 20
202.895109
 30
0.0
 11
142.126725
 21
202.895109
 31
0.0
  0
LINE
  5
141
100
AcDbEntity
  8
EBENE_1
 62
     7
100
AcDbLine
 10
104.564677
 20
100.394906
 30
0.0
 11
142.126725
 21
100.394906
 31
0.0
  0
POLYLINE
  5
12C
100
AcDbEntity
  8
EBENE_1
 62
     7
100
AcDb2dPolyline
 66
     1
 10
0.0
 20
0.0
 30
0.0
 70
     1
  0
VERTEX
  5
12D
100
AcDbEntity
  8
EBENE_1
 62
     7
100
AcDbVertex
100
AcDb2dVertex
 10
91.626965
 20
174.895095
 30
0.0
  0
VERTEX
  5
12E
100
AcDbEntity
  8
EBENE_1
 62
     7
100
AcDbVertex
100
AcDb2dVertex
 10
91.626965
 20
175.394979
 30
0.0
  0
VERTEX
  5
12F
100
AcDbEntity
  8
EBENE_1
 62
     7
100
AcDbVertex
100
AcDb2dVertex
 10
91.654009
 20
175.627006
 30
0.0
  0
VERTEX
  5
130
100
AcDbEntity
  8
EBENE_1
 62
     7
100
AcDbVertex
100
AcDb2dVertex
 10
91.713782
 20
175.802017
 30
0.0
  0
VERTEX
  5
131
100
AcDbEntity
  8
EBENE_1
 62
     7
100
AcDbVertex
100
AcDb2dVertex
 10
91.814034
 20
175.977028
 30
0.0
  0
VERTEX
  5
132
100
AcDbEntity
  8
EBENE_1
 62
     7
100
AcDbVertex
100
AcDb2dVertex
 10
91.981121
 20
176.159101
 30
0.0
  0
VERTEX
  5
133
100
AcDbEntity
  8
EBENE_1
 62
     7
100
AcDbVertex
100
AcDb2dVertex
 10
92.127193
 20
176.261076
 30
0.0
  0
VERTEX
  5
134
100
AcDbEntity
  8
EBENE_1
 62
     7
100
AcDbVertex
100
AcDb2dVertex
 10
92.362838
 20
176.360122
 30
0.0
  0
VERTEX
  5
135
100
AcDbEntity
  8
EBENE_1
 62
     7
100
AcDbVertex
100
AcDb2dVertex
 10
92.570232
 20
176.393023
 30
0.0
  0
VERTEX
  5
136
100
AcDbEntity
  8
EBENE_1
 62
     7
100
AcDbVertex
100
AcDb2dVertex
 10
92.80381
 20
176.37907
 30
0.0
  0
VERTEX
  5
137
100
AcDbEntity
  8
EBENE_1
 62
     7
100
AcDbVertex
100
AcDb2dVertex
 10
93.073905
 20
176.290015
 30
0.0
  0
VERTEX
  5
138
100
AcDbEntity
  8
EBENE_1
 62
     7
100
AcDbVertex
100
AcDb2dVertex
 10
93.319885
 20
176.116037
 30
0.0
  0
VERTEX
  5
139
100
AcDbEntity
  8
EBENE_1
 62
     7
100
AcDbVertex
100
AcDb2dVertex
 10
93.475948
 20
175.923973
 30
0.0
  0
VERTEX
  5
13A
100
AcDbEntity
  8
EBENE_1
 62
     7
100
AcDbVertex
100
AcDb2dVertex
 10
93.574822
 20
175.712961
 30
0.0
  0
VERTEX
  5
13B
100
AcDbEntity
  8
EBENE_1
 62
     7
100
AcDbVertex
100
AcDb2dVertex
 10
93.609962
 20
175.581014
 30
0.0
  0
VERTEX
  5
13C
100
AcDbEntity
  8
EBENE_1
 62
     7
100
AcDbVertex
100
AcDb2dVertex
 10
93.627188
 20
175.394979
 30
0.0
  0
VERTEX
  5
13D
100
AcDbEntity
  8
EBENE_1
 62
     7
100
AcDbVertex
100
AcDb2dVertex
 10
93.627188
 20
174.39504
 30
0.0
  0
VERTEX
  5
13E
100
AcDbEntity
  8
EBENE_1
 62
     7
100
AcDbVertex
100
AcDb2dVertex
 10
91.626965
 20
174.39504
 30
0.0
  0
VERTEX
  5
13F
100
AcDbEntity
  8
EBENE_1
 62
     7
100
AcDbVertex
100
AcDb2dVertex
 10
91.626965
 20
174.895095
 30
0.0
  0
SEQEND
  5
140
100
AcDbEntity
  8
EBENE_1
 62
     7
  0
HATCH
  5
12B
100
AcDbEntity
  8
EBENE_1
 62
     7
100
AcDbHatch
 10
0.0
 20
0.0
 30
0.0
210
0.0
220
0.0
230
1.0
  2
SOLID
 70
     1
 71
     0
 91
        1
 92
        3
 72
     0
 73
     1
 93
       19
 10
91.626965332031247
 20
174.8950954861111
 10
91.626965332031247
 20
175.39497884114581
 10
91.654009331597209
 20
175.62700602213539
 10
91.713781738281241
 20
175.80201687282985
 10
91.814034016927081
 20
175.97702772352429
 10
91.981121148003467
 20
176.15910101996525
 10
92.12719319661457
 20
176.26107584635415
 10
92.362837727864573
 20
176.36012234157985
 10
92.570232476128467
 20
176.39302300347219
 10
92.803809950086801
 20
176.37907036675347
 10
93.073905436197904
 20
176.29001464843748
 10
93.319885253906236
 20
176.11603732638886
 10
93.47594807942707
 20
175.92397325303818
 10
93.574822319878464
 20
175.71296115451386
 10
93.609962293836801
 20
175.58101399739581
 10
93.627187771267359
 20
175.39497884114581
 10
93.627187771267359
 20
174.39503987630206
 10
91.626965332031247
 20
174.39503987630206
 10
91.626965332031247
 20
174.8950954861111
 97
        0
 75
     0
 76
     1
 98
        1
 10
0.0
 20
0.0
  0
LINE
  5
12A
100
AcDbEntity
  8
EBENE_1
 62
     7
100
AcDbLine
 10
93.627188
 20
174.454985
 30
0.0
 11
91.626965
 21
174.454985
 31
0.0
  0
LINE
  5
129
100
AcDbEntity
  8
EBENE_1
 62
     7
100
AcDbLine
 10
93.627188
 20
174.555065
 30
0.0
 11
91.626965
 21
174.555065
 31
0.0
  0
LINE
  5
128
100
AcDbEntity
  8
EBENE_1
 62
     7
100
AcDbLine
 10
93.627188
 20
174.654972
 30
0.0
 11
91.626965
 21
174.654972
 31
0.0
  0
LINE
  5
127
100
AcDbEntity
  8
EBENE_1
 62
     7
100
AcDbLine
 10
93.627188
 20
174.755052
 30
0.0
 11
91.626965
 21
174.755052
 31
0.0
  0
LINE
  5
126
100
AcDbEntity
  8
EBENE_1
 62
     7
100
AcDbLine
 10
93.627188
 20
174.85496
 30
0.0
 11
91.626965
 21
174.85496
 31
0.0
  0
LINE
  5
125
100
AcDbEntity
  8
EBENE_1
 62
     7
100
AcDbLine
 10
91.626965
 20
174.95504
 30
0.0
 11
93.627188
 21
174.95504
 31
0.0
  0
LINE
  5
124
100
AcDbEntity
  8
EBENE_1
 62
     7
100
AcDbLine
 10
91.626965
 20
175.05512
 30
0.0
 11
93.627188
 21
175.05512
 31
0.0
  0
LINE
  5
123
100
AcDbEntity
  8
EBENE_1
 62
     7
100
AcDbLine
 10
91.626965
 20
175.155028
 30
0.0
 11
93.627188
 21
175.155028
 31
0.0
  0
LINE
  5
122
100
AcDbEntity
  8
EBENE_1
 62
     7
100
AcDbLine
 10
91.626965
 20
175.255108
 30
0.0
 11
93.627188
 21
175.255108
 31
0.0
  0
LINE
  5
121
100
AcDbEntity
  8
EBENE_1
 62
     7
100
AcDbLine
 10
91.626965
 20
175.355016
 30
0.0
 11
93.627188
 21
175.355016
 31
0.0
  0
LINE
  5
120
100
AcDbEntity
  8
EBENE_1
 62
     7
100
AcDbLine
 10
91.634028
 20
175.455096
 30
0.0
 11
93.62202
 21
175.455096
 31
0.0
  0
LINE
  5
11F
100
AcDbEntity
  8
EBENE_1
 62
     7
100
AcDbLine
 10
91.646086
 20
175.555004
 30
0.0
 11
93.612029
 21
175.555004
 31
0.0
  0
LINE
  5
11E
100
AcDbEntity
  8
EBENE_1
 62
     7
100
AcDbLine
 10
91.664
 20
175.655084
 30
0.0
 11
93.589981
 21
175.655084
 31
0.0
  0
LINE
  5
11D
100
AcDbEntity
  8
EBENE_1
 62
     7
100
AcDbLine
 10
91.698107
 20
175.754991
 30
0.0
 11
93.554841
 21
175.754991
 31
0.0
  0
LINE
  5
11C
100
AcDbEntity
  8
EBENE_1
 62
     7
100
AcDbLine
 10
91.744099
 20
175.855071
 30
0.0
 11
93.507987
 21
175.855071
 31
0.0
  0
LINE
  5
11B
100
AcDbEntity
  8
EBENE_1
 62
     7
100
AcDbLine
 10
91.801287
 20
175.954979
 30
0.0
 11
93.450799
 21
175.954979
 31
0.0
  0
LINE
  5
11A
100
AcDbEntity
  8
EBENE_1
 62
     7
100
AcDbLine
 10
91.886037
 20
176.055059
 30
0.0
 11
93.370184
 21
176.055059
 31
0.0
  0
LINE
  5
119
100
AcDbEntity
  8
EBENE_1
 62
     7
100
AcDbLine
 10
91.976987
 20
176.154967
 30
0.0
 11
93.264764
 21
176.154967
 31
0.0
  0
LINE
  5
118
100
AcDbEntity
  8
EBENE_1
 62
     7
100
AcDbLine
 10
92.118236
 20
176.255047
 30
0.0
 11
93.122826
 21
176.255047
 31
0.0
  0
LINE
  5
117
100
AcDbEntity
  8
EBENE_1
 62
     7
100
AcDbLine
 10
92.351124
 20
176.354955
 30
0.0
 11
92.876846
 21
176.354955
 31
0.0
  0
MTEXT
  5
116
100
AcDbEntity
  8
EBENE_1
 62
     7
100
AcDbMText
 10
95.818269
 20
141.468318
 30
0.0
 40
3.149802
 41
0.0
 71
     1
 72
     2
  1
\fMyriad Roman|b0|i0; 31.5 R 
  7
STD
210
0.0
220
0.0
230
1.0
 11
1.000001
 21
0.0
 31
0.0
 73
     1
 44
1.0
  0
MTEXT
  5
115
100
AcDbEntity
  8
EBENE_1
 62
     7
100
AcDbMText
 10
81.167828
 20
94.760337
 30
0.0
 40
3.674769
 41
0.0
 71
     1
 72
     2
  1
\fMyriad Roman|b0|i0; 4x5.8 
  7
STD
210
0.0
220
0.0
230
1.0
 11
1.000001
 21
0.0
 31
0.0
 73
     1
 44
1.0
  0
POLYLINE
  5
110
100
AcDbEntity
  8
EBENE_1
 62
     7
100
AcDb2dPolyline
 66
     1
 10
0.0
 20
0.0
 30
0.0
 70
     1
  0
VERTEX
  5
111
100
AcDbEntity
  8
EBENE_1
 62
     7
100
AcDbVertex
100
AcDb2dVertex
 10
135.290967
 20
154.914058
 30
0.0
  0
VERTEX
  5
112
100
AcDbEntity
  8
EBENE_1
 62
     7
100
AcDbVertex
100
AcDb2dVertex
 10
136.287977
 20
150.913269
 30
0.0
  0
VERTEX
  5
113
100
AcDbEntity
  8
EBENE_1
 62
     7
100
AcDbVertex
100
AcDb2dVertex
 10
134.293956
 20
150.913269
 30
0.0
  0
SEQEND
  5
114
100
AcDbEntity
  8
EBENE_1
 62
     7
  0
HATCH
  5
10F
100
AcDbEntity
  8
EBENE_1
 62
     7
100
AcDbHatch
 10
0.0
 20
0.0
 30
0.0
210
0.0
220
0.0
230
1.0
  2
SOLID
 70
     1
 71
     0
 91
        1
 92
        3
 72
     0
 73
     1
 93
        3
 10
135.29096679687498
 20
154.91405843098957
 10
136.28797743055554
 20
150.91326904296875
 10
134.29395616319442
 20
150.91326904296875
 97
        0
 75
     0
 76
     1
 98
        1
 10
0.0
 20
0.0
  0
LINE
  5
10E
100
AcDbEntity
  8
EBENE_1
 62
     7
100
AcDbLine
 10
128.715658
 20
133.265251
 30
0.0
 11
128.715658
 21
147.977014
 31
0.0
  0
POLYLINE
  5
109
100
AcDbEntity
  8
EBENE_1
 62
     7
100
AcDb2dPolyline
 66
     1
 10
0.0
 20
0.0
 30
0.0
 70
     1
  0
VERTEX
  5
10A
100
AcDbEntity
  8
EBENE_1
 62
     7
100
AcDbVertex
100
AcDb2dVertex
 10
135.282699
 20
100.197846
 30
0.0
  0
VERTEX
  5
10B
100
AcDbEntity
  8
EBENE_1
 62
     7
100
AcDbVertex
100
AcDb2dVertex
 10
134.285688
 20
104.19898
 30
0.0
  0
VERTEX
  5
10C
100
AcDbEntity
  8
EBENE_1
 62
     7
100
AcDbVertex
100
AcDb2dVertex
 10
136.279709
 20
104.19898
 30
0.0
  0
SEQEND
  5
10D
100
AcDbEntity
  8
EBENE_1
 62
     7
  0
HATCH
  5
108
100
AcDbEntity
  8
EBENE_1
 62
     7
100
AcDbHatch
 10
0.0
 20
0.0
 30
0.0
210
0.0
220
0.0
230
1.0
  2
SOLID
 70
     1
 71
     0
 91
        1
 92
        3
 72
     0
 73
     1
 93
        3
 10
135.28269856770831
 20
100.19784613715277
 10
134.28568793402778
 20
104.19898003472221
 10
136.27970920138887
 20
104.19898003472221
 97
        0
 75
     0
 76
     1
 98
        1
 10
0.0
 20
0.0
  0
LINE
  5
107
100
AcDbEntity
  8
EBENE_1
 62
     7
100
AcDbLine
 10
80.201478
 20
92.654465
 30
0.0
 11
73.480269
 21
92.654465
 31
0.0
  0
LINE
  5
106
100
AcDbEntity
  8
EBENE_1
 62
     7
100
AcDbLine
 10
66.031284
 20
92.49668
 30
0.0
 11
60.899986
 21
92.49668
 31
0.0
  0
MTEXT
  5
105
100
AcDbEntity
  8
EBENE_1
 62
     7
100
AcDbMText
 10
86.837938
 20
89.942716
 30
0.0
 40
3.674769
 41
0.0
 71
     1
 72
     2
  1
\fMyriad Roman|b0|i0; 55.0 
  7
STD
210
0.0
220
0.0
230
1.0
 11
1.000001
 21
0.0
 31
0.0
 73
     1
 44
1.0
  0
POLYLINE
  5
100
100
AcDbEntity
  8
EBENE_1
 62
     7
100
AcDb2dPolyline
 66
     1
 10
0.0
 20
0.0
 30
0.0
 70
     1
  0
VERTEX
  5
101
100
AcDbEntity
  8
EBENE_1
 62
     7
100
AcDbVertex
100
AcDb2dVertex
 10
65.126946
 20
87.618424
 30
0.0
  0
VERTEX
  5
102
100
AcDbEntity
  8
EBENE_1
 62
     7
100
AcDbVertex
100
AcDb2dVertex
 10
69.12808
 20
88.615435
 30
0.0
  0
VERTEX
  5
103
100
AcDbEntity
  8
EBENE_1
 62
     7
100
AcDbVertex
100
AcDb2dVertex
 10
69.12808
 20
86.621414
 30
0.0
  0
SEQEND
  5
104
100
AcDbEntity
  8
EBENE_1
 62
     7
  0
HATCH
  5
FF
100
AcDbEntity
  8
EBENE_1
 62
     7
100
AcDbHatch
 10
0.0
 20
0.0
 30
0.0
210
0.0
220
0.0
230
1.0
  2
SOLID
 70
     1
 71
     0
 91
        1
 92
        3
 72
     0
 73
     1
 93
        3
 10
65.126946343315964
 20
87.618424479166663
 10
69.12808024088541
 20
88.615435112847209
 10
69.12808024088541
 20
86.621413845486103
 97
        0
 75
     0
 76
     1
 98
        1
 10
0.0
 20
0.0
  0
LINE
  5
FE
100
AcDbEntity
  8
EBENE_1
 62
     7
100
AcDbLine
 10
86.486022
 20
87.618424
 30
0.0
 11
64.98587
 21
87.618424
 31
0.0
  0
POLYLINE
  5
F9
100
AcDbEntity
  8
EBENE_1
 62
     7
100
AcDb2dPolyline
 66
     1
 10
0.0
 20
0.0
 30
0.0
 70
     1
  0
VERTEX
  5
FA
100
AcDbEntity
  8
EBENE_1
 62
     7
100
AcDbVertex
100
AcDb2dVertex
 10
119.985786
 20
87.829953
 30
0.0
  0
VERTEX
  5
FB
100
AcDbEntity
  8
EBENE_1
 62
     7
100
AcDbVertex
100
AcDb2dVertex
 10
115.984652
 20
86.832943
 30
0.0
  0
VERTEX
  5
FC
100
AcDbEntity
  8
EBENE_1
 62
     7
100
AcDbVertex
100
AcDb2dVertex
 10
115.984652
 20
88.826964
 30
0.0
  0
SEQEND
  5
FD
100
AcDbEntity
  8
EBENE_1
 62
     7
  0
HATCH
  5
F8
100
AcDbEntity
  8
EBENE_1
 62
     7
100
AcDbHatch
 10
0.0
 20
0.0
 30
0.0
210
0.0
220
0.0
230
1.0
  2
SOLID
 70
     1
 71
     0
 91
        1
 92
        3
 72
     0
 73
     1
 93
        3
 10
119.98578559027777
 20
87.82995334201388
 10
115.98465169270833
 20
86.83294270833332
 10
115.98465169270833
 20
88.82696397569444
 97
        0
 75
     0
 76
     1
 98
        1
 10
0.0
 20
0.0
  0
LINE
  5
F7
100
AcDbEntity
  8
EBENE_1
 62
     7
100
AcDbLine
 10
98.133373
 20
87.829953
 30
0.0
 11
119.633008
 21
87.829953
 31
0.0
  0
LINE
  5
F6
100
AcDbEntity
  8
EBENE_1
 62
     7
100
AcDbLine
 10
65.126946
 20
102.895356
 30
0.0
 11
65.126946
 21
87.599132
 31
0.0
  0
LINE
  5
F5
100
AcDbEntity
  8
EBENE_1
 62
     7
100
AcDbLine
 10
120.127035
 20
102.895356
 30
0.0
 11
120.127035
 21
87.810661
 31
0.0
  0
MTEXT
  5
F4
100
AcDbEntity
  8
EBENE_1
 62
     7
100
AcDbMText
 10
88.504848
 20
210.247862
 30
0.0
 40
3.674769
 41
0.0
 71
     1
 72
     2
  1
\fMyriad Roman|b0|i0; 50.0 
  7
STD
210
0.0
220
0.0
230
1.0
 11
1.000001
 21
0.0
 31
0.0
 73
     1
 44
1.0
  0
POLYLINE
  5
EF
100
AcDbEntity
  8
EBENE_1
 62
     7
100
AcDb2dPolyline
 66
     1
 10
0.0
 20
0.0
 30
0.0
 70
     1
  0
VERTEX
  5
F0
100
AcDbEntity
  8
EBENE_1
 62
     7
100
AcDbVertex
100
AcDb2dVertex
 10
117.627273
 20
208.395032
 30
0.0
  0
VERTEX
  5
F1
100
AcDbEntity
  8
EBENE_1
 62
     7
100
AcDbVertex
100
AcDb2dVertex
 10
113.626139
 20
207.398021
 30
0.0
  0
VERTEX
  5
F2
100
AcDbEntity
  8
EBENE_1
 62
     7
100
AcDbVertex
100
AcDb2dVertex
 10
113.626139
 20
209.392042
 30
0.0
  0
SEQEND
  5
F3
100
AcDbEntity
  8
EBENE_1
 62
     7
  0
HATCH
  5
EE
100
AcDbEntity
  8
EBENE_1
 62
     7
100
AcDbHatch
 10
0.0
 20
0.0
 30
0.0
210
0.0
220
0.0
230
1.0
  2
SOLID
 70
     1
 71
     0
 91
        1
 92
        3
 72
     0
 73
     1
 93
        3
 10
117.6272732204861
 20
208.39503173828123
 10
113.62613932291666
 20
207.39802110460067
 10
113.62613932291666
 20
209.39204237196179
 97
        0
 75
     0
 76
     1
 98
        1
 10
0.0
 20
0.0
  0
LINE
  5
ED
100
AcDbEntity
  8
EBENE_1
 62
     7
100
AcDbLine
 10
99.126938
 20
208.395032
 30
0.0
 11
117.627273
 21
208.395032
 31
0.0
  0
POLYLINE
  5
E8
100
AcDbEntity
  8
EBENE_1
 62
     7
100
AcDb2dPolyline
 66
     1
 10
0.0
 20
0.0
 30
0.0
 70
     1
  0
VERTEX
  5
E9
100
AcDbEntity
  8
EBENE_1
 62
     7
100
AcDbVertex
100
AcDb2dVertex
 10
67.627052
 20
208.395032
 30
0.0
  0
VERTEX
  5
EA
100
AcDbEntity
  8
EBENE_1
 62
     7
100
AcDbVertex
100
AcDb2dVertex
 10
71.628014
 20
209.392042
 30
0.0
  0
VERTEX
  5
EB
100
AcDbEntity
  8
EBENE_1
 62
     7
100
AcDbVertex
100
AcDb2dVertex
 10
71.628014
 20
207.398021
 30
0.0
  0
SEQEND
  5
EC
100
AcDbEntity
  8
EBENE_1
 62
     7
  0
HATCH
  5
E7
100
AcDbEntity
  8
EBENE_1
 62
     7
100
AcDbHatch
 10
0.0
 20
0.0
 30
0.0
210
0.0
220
0.0
230
1.0
  2
SOLID
 70
     1
 71
     0
 91
        1
 92
        3
 72
     0
 73
     1
 93
        3
 10
67.627052137586801
 20
208.39503173828123
 10
71.628013780381934
 20
209.39204237196179
 10
71.628013780381934
 20
207.39802110460067
 97
        0
 75
     0
 76
     1
 98
        1
 10
0.0
 20
0.0
  0
LINE
  5
E6
100
AcDbEntity
  8
EBENE_1
 62
     7
100
AcDbLine
 10
87.126982
 20
208.395032
 30
0.0
 11
67.627052
 21
208.395032
 31
0.0
  0
LINE
  5
E5
100
AcDbEntity
  8
EBENE_1
 62
     7
100
AcDbLine
 10
117.627273
 20
200.115262
 30
0.0
 11
117.627273
 21
208.395032
 31
0.0
  0
LINE
  5
E4
100
AcDbEntity
  8
EBENE_1
 62
     7
100
AcDbLine
 10
67.627052
 20
200.240663
 30
0.0
 11
67.627052
 21
208.395032
 31
0.0
  0
LINE
  5
E3
100
AcDbEntity
  8
EBENE_1
 62
     7
100
AcDbLine
 10
67.665982
 20
200.309565
 30
0.0
 11
70.157819
 21
202.80123
 31
0.0
  0
LINE
  5
E2
100
AcDbEntity
  8
EBENE_1
 62
     7
100
AcDbLine
 10
114.792649
 20
202.887702
 30
0.0
 11
117.604536
 21
200.120946
 31
0.0
  0
SPLINE
  5
E1
100
AcDbEntity
  8
EBENE_1
 62
     7
100
AcDbSpline
210
0.0
220
0.0
230
1.0
 70
     8
 71
     3
 72
     8
 73
     4
 74
     0
 42
0.00000001
 43
0.00000001
 40
0.0
 40
0.0
 40
0.0
 40
0.0
 40
1.0
 40
1.0
 40
1.0
 40
1.0
 10
74.731355794270826
 20
101.96862521701388
 30
0.0
 10
71.50002848307291
 20
104.20311414930555
 30
0.0
 10
68.706917317708331
 20
107.02671440972222
 30
0.0
 10
66.506707085503464
 20
110.28301866319444
 30
0.0
  0
SPLINE
  5
E0
100
AcDbEntity
  8
EBENE_1
 62
     7
100
AcDbSpline
210
0.0
220
0.0
230
1.0
 70
     8
 71
     3
 72
     8
 73
     4
 74
     0
 42
0.00000001
 43
0.00000001
 40
0.0
 40
0.0
 40
0.0
 40
0.0
 40
1.0
 40
1.0
 40
1.0
 40
1.0
 10
118.46374240451388
 20
109.87029622395832
 30
0.0
 10
116.24303385416665
 20
106.69391818576388
 30
0.0
 10
113.45181749131943
 20
103.94542100694443
 30
0.0
 10
110.23892144097221
 20
101.77501085069443
 30
0.0
  0
SPLINE
  5
DF
100
AcDbEntity
  8
EBENE_1
 62
     7
100
AcDbSpline
210
0.0
220
0.0
230
1.0
 70
     8
 71
     3
 72
     8
 73
     4
 74
     0
 42
0.00000001
 43
0.00000001
 40
0.0
 40
0.0
 40
0.0
 40
0.0
 40
1.0
 40
1.0
 40
1.0
 40
1.0
 10
110.5703396267361
 20
153.78837348090278
 30
0.0
 10
113.77772352430554
 20
151.56129150390623
 30
0.0
 10
116.55171440972221
 20
148.75353868272569
 30
0.0
 10
118.74003906249999
 20
145.5173882378472
 30
0.0
  0
SPLINE
  5
DE
100
AcDbEntity
  8
EBENE_1
 62
     7
100
AcDbSpline
210
0.0
220
0.0
230
1.0
 70
     8
 71
     3
 72
     8
 73
     4
 74
     0
 42
0.00000001
 43
0.00000001
 40
0.0
 40
0.0
 40
0.0
 40
0.0
 40
1.0
 40
1.0
 40
1.0
 40
1.0
 10
66.644166395399296
 20
145.70893554687498
 30
0.0
 10
68.773235405815967
 20
148.80866021050346
 30
0.0
 10
71.442667643229157
 20
151.50806477864583
 30
0.0
 10
74.516381835937494
 20
153.6715847439236
 30
0.0
  0
LINE
  5
DD
100
AcDbEntity
  8
EBENE_1
 62
     7
100
AcDbLine
 10
67.408633
 20
152.565365
 30
0.0
 11
73.28476
 21
147.084907
 31
0.0
  0
LINE
  5
DC
100
AcDbEntity
  8
EBENE_1
 62
     7
100
AcDbLine
 10
117.964204
 20
152.830637
 30
0.0
 11
112.272217
 21
147.098687
 31
0.0
  0
LINE
  5
DB
100
AcDbEntity
  8
EBENE_1
 62
     7
100
AcDbLine
 10
67.386412
 20
102.648687
 30
0.0
 11
73.673539
 21
108.873286
 31
0.0
  0
LINE
  5
DA
100
AcDbEntity
  8
EBENE_1
 62
     7
100
AcDbLine
 10
117.599712
 20
102.882954
 30
0.0
 11
111.507406
 21
108.505349
 31
0.0
  0
LINE
  5
D9
100
AcDbEntity
  8
EBENE_1
 62
     7
100
AcDbLine
 10
73.392936
 20
105.825754
 30
0.0
 11
73.392936
 21
92.535954
 31
0.0
  0
LINE
  5
D8
100
AcDbEntity
  8
EBENE_1
 62
     7
100
AcDbLine
 10
67.469095
 20
105.845047
 30
0.0
 11
67.469095
 21
92.555246
 31
0.0
  0
POLYLINE
  5
D3
100
AcDbEntity
  8
EBENE_1
 62
     7
100
AcDb2dPolyline
 66
     1
 10
0.0
 20
0.0
 30
0.0
 70
     1
  0
VERTEX
  5
D4
100
AcDbEntity
  8
EBENE_1
 62
     7
100
AcDbVertex
100
AcDb2dVertex
 10
67.353856
 20
92.571094
 30
0.0
  0
VERTEX
  5
D5
100
AcDbEntity
  8
EBENE_1
 62
     7
100
AcDbVertex
100
AcDb2dVertex
 10
63.352722
 20
91.574083
 30
0.0
  0
VERTEX
  5
D6
100
AcDbEntity
  8
EBENE_1
 62
     7
100
AcDbVertex
100
AcDb2dVertex
 10
63.352722
 20
93.568104
 30
0.0
  0
SEQEND
  5
D7
100
AcDbEntity
  8
EBENE_1
 62
     7
  0
HATCH
  5
D2
100
AcDbEntity
  8
EBENE_1
 62
     7
100
AcDbHatch
 10
0.0
 20
0.0
 30
0.0
210
0.0
220
0.0
230
1.0
  2
SOLID
 70
     1
 71
     0
 91
        1
 92
        3
 72
     0
 73
     1
 93
        3
 10
67.353856065538181
 20
92.571093749999989
 10
63.352722167968743
 20
91.574083116319443
 10
63.352722167968743
 20
93.568104383680549
 97
        0
 75
     0
 76
     1
 98
        1
 10
0.0
 20
0.0
  0
POLYLINE
  5
CD
100
AcDbEntity
  8
EBENE_1
 62
     7
100
AcDb2dPolyline
 66
     1
 10
0.0
 20
0.0
 30
0.0
 70
     1
  0
VERTEX
  5
CE
100
AcDbEntity
  8
EBENE_1
 62
     7
100
AcDbVertex
100
AcDb2dVertex
 10
73.437722
 20
92.642063
 30
0.0
  0
VERTEX
  5
CF
100
AcDbEntity
  8
EBENE_1
 62
     7
100
AcDbVertex
100
AcDb2dVertex
 10
77.438856
 20
93.639073
 30
0.0
  0
VERTEX
  5
D0
100
AcDbEntity
  8
EBENE_1
 62
     7
100
AcDbVertex
100
AcDb2dVertex
 10
77.438856
 20
91.645052
 30
0.0
  0
SEQEND
  5
D1
100
AcDbEntity
  8
EBENE_1
 62
     7
  0
HATCH
  5
CC
100
AcDbEntity
  8
EBENE_1
 62
     7
100
AcDbHatch
 10
0.0
 20
0.0
 30
0.0
210
0.0
220
0.0
230
1.0
  2
SOLID
 70
     1
 71
     0
 91
        1
 92
        3
 72
     0
 73
     1
 93
        3
 10
73.437722439236111
 20
92.642062717013886
 10
77.438856336805543
 20
93.639073350694431
 10
77.438856336805543
 20
91.645052083333326
 97
        0
 75
     0
 76
     1
 98
        1
 10
0.0
 20
0.0
  0
LINE
  5
CB
100
AcDbEntity
  8
EBENE_1
 62
     7
100
AcDbLine
 10
115.883366
 20
144.017394
 30
0.0
 11
106.55887
 21
137.527523
 31
0.0
  0
POLYLINE
  5
C6
100
AcDbEntity
  8
EBENE_1
 62
     7
100
AcDb2dPolyline
 66
     1
 10
0.0
 20
0.0
 30
0.0
 70
     1
  0
VERTEX
  5
C7
100
AcDbEntity
  8
EBENE_1
 62
     7
100
AcDbVertex
100
AcDb2dVertex
 10
62.814426
 20
106.389372
 30
0.0
  0
VERTEX
  5
C8
100
AcDbEntity
  8
EBENE_1
 62
     7
100
AcDbVertex
100
AcDb2dVertex
 10
65.28387
 20
109.691151
 30
0.0
  0
VERTEX
  5
C9
100
AcDbEntity
  8
EBENE_1
 62
     7
100
AcDbVertex
100
AcDb2dVertex
 10
66.54512
 20
108.144992
 30
0.0
  0
SEQEND
  5
CA
100
AcDbEntity
  8
EBENE_1
 62
     7
  0
HATCH
  5
C5
100
AcDbEntity
  8
EBENE_1
 62
     7
100
AcDbHatch
 10
0.0
 20
0.0
 30
0.0
210
0.0
220
0.0
230
1.0
  2
SOLID
 70
     1
 71
     0
 91
        1
 92
        3
 72
     0
 73
     1
 93
        3
 10
62.814425998263886
 20
106.38937174479166
 10
65.283870442708334
 20
109.69115125868055
 10
66.545119900173603
 20
108.14499240451389
 97
        0
 75
     0
 76
     1
 98
        1
 10
0.0
 20
0.0
  0
LINE
  5
C4
100
AcDbEntity
  8
EBENE_1
 62
     7
100
AcDbLine
 10
77.798697
 20
117.143582
 30
0.0
 11
65.451302
 21
108.449539
 31
0.0
  0
LINE
  5
C3
100
AcDbEntity
  8
EBENE_1
 62
     7
100
AcDbLine
 10
92.690811
 20
127.825445
 30
0.0
 11
83.44383
 21
121.357623
 31
0.0
  0
LINE
  5
C2
100
AcDbEntity
  8
EBENE_1
 62
     7
100
AcDbLine
 10
92.412447
 20
147.961856
 30
0.0
 11
128.715658
 21
147.961856
 31
0.0
  0
LINE
  5
C1
100
AcDbEntity
  8
EBENE_1
 62
     7
100
AcDbLine
 10
113.681261
 20
154.945064
 30
0.0
 11
135.211041
 21
154.945064
 31
0.0
  0
LINE
  5
C0
100
AcDbEntity
  8
EBENE_1
 62
     7
100
AcDbLine
 10
92.790719
 20
107.916927
 30
0.0
 11
128.929253
 21
107.916927
 31
0.0
  0
LINE
  5
BF
100
AcDbEntity
  8
EBENE_1
 62
     7
100
AcDbLine
 10
135.286833
 20
123.87392
 30
0.0
 11
135.286833
 21
102.120209
 31
0.0
  0
LINE
  5
BE
100
AcDbEntity
  8
EBENE_1
 62
     7
100
AcDbLine
 10
135.211041
 20
154.997774
 30
0.0
 11
135.211041
 21
134.228499
 31
0.0
  0
MTEXT
  5
BD
100
AcDbEntity
  8
EBENE_1
 62
     7
100
AcDbMText
 10
132.992169
 20
123.887012
 30
0.0
 40
3.674769
 41
0.0
 71
     1
 72
     2
  1
\fMyriad Roman|b0|i0; 55.0 
  7
STD
210
0.0
220
0.0
230
1.0
 11
0.0
 21
1.0
 31
0.0
 73
     1
 44
1.0
  0
MTEXT
  5
BC
100
AcDbEntity
  8
EBENE_1
 62
     7
100
AcDbMText
 10
126.385165
 20
123.884945
 30
0.0
 40
3.674769
 41
0.0
 71
     1
 72
     2
  1
\fMyriad Roman|b0|i0;40j6
  7
STD
210
0.0
220
0.0
230
1.0
 11
0.0
 21
1.0
 31
0.0
 73
     1
 44
1.0
  0
POLYLINE
  5
B7
100
AcDbEntity
  8
EBENE_1
 62
     7
100
AcDb2dPolyline
 66
     1
 10
0.0
 20
0.0
 30
0.0
 70
     1
  0
VERTEX
  5
B8
100
AcDbEntity
  8
EBENE_1
 62
     7
100
AcDbVertex
100
AcDb2dVertex
 10
128.714969
 20
147.931194
 30
0.0
  0
VERTEX
  5
B9
100
AcDbEntity
  8
EBENE_1
 62
     7
100
AcDbVertex
100
AcDb2dVertex
 10
129.711979
 20
143.930577
 30
0.0
  0
VERTEX
  5
BA
100
AcDbEntity
  8
EBENE_1
 62
     7
100
AcDbVertex
100
AcDb2dVertex
 10
127.717958
 20
143.930577
 30
0.0
  0
SEQEND
  5
BB
100
AcDbEntity
  8
EBENE_1
 62
     7
  0
HATCH
  5
B6
100
AcDbEntity
  8
EBENE_1
 62
     7
100
AcDbHatch
 10
0.0
 20
0.0
 30
0.0
210
0.0
220
0.0
230
1.0
  2
SOLID
 70
     1
 71
     0
 91
        1
 92
        3
 72
     0
 73
     1
 93
        3
 10
128.71496853298609
 20
147.93119439019097
 10
129.71197916666665
 20
143.93057725694442
 10
127.71795789930555
 20
143.93057725694442
 97
        0
 75
     0
 76
     1
 98
        1
 10
0.0
 20
0.0
  0
POLYLINE
  5
B1
100
AcDbEntity
  8
EBENE_1
 62
     7
100
AcDb2dPolyline
 66
     1
 10
0.0
 20
0.0
 30
0.0
 70
     1
  0
VERTEX
  5
B2
100
AcDbEntity
  8
EBENE_1
 62
     7
100
AcDbVertex
100
AcDb2dVertex
 10
128.945101
 20
107.889366
 30
0.0
  0
VERTEX
  5
B3
100
AcDbEntity
  8
EBENE_1
 62
     7
100
AcDbVertex
100
AcDb2dVertex
 10
127.94809
 20
111.889811
 30
0.0
  0
VERTEX
  5
B4
100
AcDbEntity
  8
EBENE_1
 62
     7
100
AcDbVertex
100
AcDb2dVertex
 10
129.942112
 20
111.889811
 30
0.0
  0
SEQEND
  5
B5
100
AcDbEntity
  8
EBENE_1
 62
     7
  0
HATCH
  5
B0
100
AcDbEntity
  8
EBENE_1
 62
     7
100
AcDbHatch
 10
0.0
 20
0.0
 30
0.0
210
0.0
220
0.0
230
1.0
  2
SOLID
 70
     1
 71
     0
 91
        1
 92
        3
 72
     0
 73
     1
 93
        3
 10
128.94510091145833
 20
107.88936631944443
 10
127.94809027777777
 20
111.88981119791666
 10
129.94211154513889
 20
111.88981119791666
 97
        0
 75
     0
 76
     1
 98
        1
 10
0.0
 20
0.0
  0
LINE
  5
AF
100
AcDbEntity
  8
EBENE_1
 62
     7
100
AcDbLine
 10
128.945101
 20
108.16773
 30
0.0
 11
128.945101
 21
123.029183
 31
0.0
  0
LINE
  5
AE
100
AcDbEntity
  8
EBENE_1
 62
     7
100
AcDbLine
 10
88.611818
 20
127.869542
 30
0.0
 11
88.611818
 21
116.174132
 31
0.0
  0
LINE
  5
AD
100
AcDbEntity
  8
EBENE_1
 62
     7
100
AcDbLine
 10
96.626832
 20
127.724848
 30
0.0
 11
96.626832
 21
116.148638
 31
0.0
  0
POLYLINE
  5
A8
100
AcDbEntity
  8
EBENE_1
 62
     7
100
AcDb2dPolyline
 66
     1
 10
0.0
 20
0.0
 30
0.0
 70
     1
  0
VERTEX
  5
A9
100
AcDbEntity
  8
EBENE_1
 62
     7
100
AcDbVertex
100
AcDb2dVertex
 10
96.675408
 20
116.143126
 30
0.0
  0
VERTEX
  5
AA
100
AcDbEntity
  8
EBENE_1
 62
     7
100
AcDbVertex
100
AcDb2dVertex
 10
100.676542
 20
117.140137
 30
0.0
  0
VERTEX
  5
AB
100
AcDbEntity
  8
EBENE_1
 62
     7
100
AcDbVertex
100
AcDb2dVertex
 10
100.676542
 20
115.146115
 30
0.0
  0
SEQEND
  5
AC
100
AcDbEntity
  8
EBENE_1
 62
     7
  0
HATCH
  5
A7
100
AcDbEntity
  8
EBENE_1
 62
     7
100
AcDbHatch
 10
0.0
 20
0.0
 30
0.0
210
0.0
220
0.0
230
1.0
  2
SOLID
 70
     1
 71
     0
 91
        1
 92
        3
 72
     0
 73
     1
 93
        3
 10
96.675408257378464
 20
116.14312608506944
 10
100.67654215494791
 20
117.14013671874999
 10
100.67654215494791
 20
115.14611545138888
 97
        0
 75
     0
 76
     1
 98
        1
 10
0.0
 20
0.0
  0
POLYLINE
  5
A2
100
AcDbEntity
  8
EBENE_1
 62
     7
100
AcDb2dPolyline
 66
     1
 10
0.0
 20
0.0
 30
0.0
 70
     1
  0
VERTEX
  5
A3
100
AcDbEntity
  8
EBENE_1
 62
     7
100
AcDbVertex
100
AcDb2dVertex
 10
88.58219
 20
116.206516
 30
0.0
  0
VERTEX
  5
A4
100
AcDbEntity
  8
EBENE_1
 62
     7
100
AcDbVertex
100
AcDb2dVertex
 10
84.581056
 20
115.209505
 30
0.0
  0
VERTEX
  5
A5
100
AcDbEntity
  8
EBENE_1
 62
     7
100
AcDbVertex
100
AcDb2dVertex
 10
84.581056
 20
117.203526
 30
0.0
  0
SEQEND
  5
A6
100
AcDbEntity
  8
EBENE_1
 62
     7
  0
HATCH
  5
A1
100
AcDbEntity
  8
EBENE_1
 62
     7
100
AcDbHatch
 10
0.0
 20
0.0
 30
0.0
210
0.0
220
0.0
230
1.0
  2
SOLID
 70
     1
 71
     0
 91
        1
 92
        3
 72
     0
 73
     1
 93
        3
 10
88.582189941406241
 20
116.20651584201387
 10
84.581056043836796
 20
115.20950520833333
 10
84.581056043836796
 20
117.20352647569443
 97
        0
 75
     0
 76
     1
 98
        1
 10
0.0
 20
0.0
  0
LINE
  5
A0
100
AcDbEntity
  8
EBENE_1
 62
     7
100
AcDbLine
 10
96.748444
 20
116.130035
 30
0.0
 11
102.755313
 21
116.130035
 31
0.0
  0
LINE
  5
9F
100
AcDbEntity
  8
EBENE_1
 62
     7
100
AcDbLine
 10
81.691999
 20
116.221674
 30
0.0
 11
87.698867
 21
116.221674
 31
0.0
  0
MTEXT
  5
9E
100
AcDbEntity
  8
EBENE_1
 62
     7
100
AcDbMText
 10
87.681642
 20
116.593285
 30
0.0
 40
3.674769
 41
0.0
 71
     1
 72
     2
  1
\fMyriad Roman|b0|i0; 8k6
  7
STD
210
0.0
220
0.0
230
1.0
 11
1.000001
 21
0.0
 31
0.0
 73
     1
 44
1.0
  0
CIRCLE
  5
9D
100
AcDbEntity
  8
EBENE_1
 62
     7
100
AcDbCircle
 10
77.189431
 20
164.454217
 30
0.0
 40
6.752215
  0
CIRCLE
  5
9C
100
AcDbEntity
  8
EBENE_1
 62
     7
100
AcDbCircle
 10
77.189431
 20
164.453872
 30
0.0
 40
7.311009
  0
HATCH
  5
9B
100
AcDbEntity
  8
EBENE_1
 62
   252
100
AcDbHatch
 10
0.0
 20
0.0
 30
0.0
210
0.0
220
0.0
230
1.0
  2
SOLID
 70
     1
 71
     0
 91
        6
 92
        1
 93
        1
 72
     4
 94
        3
 73
     0
 74
     0
 95
       17
 96
       13
 40
0.0
 40
0.0
 40
0.0
 40
0.0
 40
1.0
 40
1.0
 40
1.0
 40
2.0
 40
2.0
 40
2.0
 40
3.0
 40
3.0
 40
3.0
 40
4.0
 40
4.0
 40
4.0
 40
4.0
 10
79.004996744791654
 20
162.31464029947915
 10
79.005341254340266
 20
162.58921440972222
 10
79.227205403645826
 20
162.81142306857637
 10
79.501090494791654
 20
162.81142306857637
 10
79.775320095486109
 20
162.81142306857637
 10
79.997528754340266
 20
162.58886990017359
 10
79.997873263888877
 20
162.31464029947915
 10
79.997528754340266
 20
162.04041069878471
 10
79.775320095486109
 20
161.81820203993055
 10
79.501435004340266
 20
161.81854654947915
 10
79.227549913194437
 20
161.81854654947915
 10
79.005341254340266
 20
162.04041069878471
 10
79.004996744791654
 20
162.31464029947915
 97
        0
 92
        1
 93
        1
 72
     4
 94
        3
 73
     0
 74
     0
 95
       17
 96
       13
 40
0.0
 40
0.0
 40
0.0
 40
0.0
 40
1.0
 40
1.0
 40
1.0
 40
2.0
 40
2.0
 40
2.0
 40
3.0
 40
3.0
 40
3.0
 40
4.0
 40
4.0
 40
4.0
 40
4.0
 10
74.505013020833331
 20
162.31464029947915
 10
74.505013020833331
 20
162.58886990017359
 10
74.7275661892361
 20
162.81142306857637
 10
75.001106770833331
 20
162.81142306857637
 10
75.275336371527771
 20
162.81142306857637
 10
75.497545030381943
 20
162.58886990017359
 10
75.497889539930554
 20
162.31464029947915
 10
75.497545030381943
 20
162.04041069878471
 10
75.275336371527771
 20
161.81854654947915
 10
75.001451280381943
 20
161.81854654947915
 10
74.7275661892361
 20
161.81854654947915
 10
74.505357530381943
 20
162.04075520833331
 10
74.505013020833331
 20
162.31464029947915
 97
        0
 92
        1
 93
        1
 72
     4
 94
        3
 73
     0
 74
     0
 95
       17
 96
       13
 40
0.0
 40
0.0
 40
0.0
 40
0.0
 40
1.0
 40
1.0
 40
1.0
 40
2.0
 40
2.0
 40
2.0
 40
3.0
 40
3.0
 40
3.0
 40
4.0
 40
4.0
 40
4.0
 40
4.0
 10
77.747536892361097
 20
164.56497667100692
 10
77.747536892361097
 20
164.29074707031248
 10
77.52532823350694
 20
164.06819390190969
 10
77.251443142361097
 20
164.06819390190969
 10
76.977213541666657
 20
164.06853841145832
 10
76.755349392361097
 20
164.29074707031248
 10
76.7550048828125
 20
164.56497667100692
 10
76.755349392361097
 20
164.83920627170139
 10
76.977213541666657
 20
165.06175944010414
 10
77.2510986328125
 20
165.06175944010414
 10
77.52532823350694
 20
165.06107042100692
 10
77.747536892361097
 20
164.83920627170139
 10
77.747536892361097
 20
164.56497667100692
 97
        0
 92
        1
 93
        1
 72
     4
 94
        3
 73
     0
 74
     0
 95
       17
 96
       13
 40
0.0
 40
0.0
 40
0.0
 40
0.0
 40
1.0
 40
1.0
 40
1.0
 40
2.0
 40
2.0
 40
2.0
 40
3.0
 40
3.0
 40
3.0
 40
4.0
 40
4.0
 40
4.0
 40
4.0
 10
79.004996744791654
 20
166.81462402343749
 10
79.004996744791654
 20
167.08954264322915
 10
79.227205403645826
 20
167.31140679253471
 10
79.501090494791654
 20
167.31140679253471
 10
79.77566460503472
 20
167.31175130208331
 10
79.997873263888877
 20
167.08954264322915
 10
79.997873263888877
 20
166.81462402343749
 10
79.997184244791654
 20
166.54039442274305
 10
79.775320095486109
 20
166.31853027343749
 10
79.501435004340266
 20
166.31853027343749
 10
79.227205403645826
 20
166.31853027343749
 10
79.004996744791654
 20
166.54073893229165
 10
79.004996744791654
 20
166.81462402343749
 97
        0
 92
        1
 93
        1
 72
     4
 94
        3
 73
     0
 74
     0
 95
       17
 96
       13
 40
0.0
 40
0.0
 40
0.0
 40
0.0
 40
1.0
 40
1.0
 40
1.0
 40
2.0
 40
2.0
 40
2.0
 40
3.0
 40
3.0
 40
3.0
 40
4.0
 40
4.0
 40
4.0
 40
4.0
 10
74.505013020833331
 20
166.81462402343749
 10
74.505357530381943
 20
167.08954264322915
 10
74.7275661892361
 20
167.31140679253471
 10
75.001106770833331
 20
167.31140679253471
 10
75.275336371527771
 20
167.31140679253471
 10
75.497545030381943
 20
167.08885362413193
 10
75.497545030381943
 20
166.81496853298609
 10
75.497545030381943
 20
166.54039442274305
 10
75.275336371527771
 20
166.31853027343749
 10
75.001106770833331
 20
166.31853027343749
 10
74.7275661892361
 20
166.31853027343749
 10
74.505357530381943
 20
166.54073893229165
 10
74.505013020833331
 20
166.81462402343749
 97
        0
 92
       16
 93
        1
 72
     4
 94
        3
 73
     0
 74
     0
 95
      125
 96
      121
 40
0.0
 40
0.0
 40
0.0
 40
0.0
 40
1.0
 40
1.0
 40
1.0
 40
2.0
 40
2.0
 40
2.0
 40
3.0
 40
3.0
 40
3.0
 40
4.0
 40
4.0
 40
4.0
 40
5.0
 40
5.0
 40
5.0
 40
6.0
 40
6.0
 40
6.0
 40
7.0
 40
7.0
 40
7.0
 40
8.0
 40
8.0
 40
8.0
 40
9.0
 40
9.0
 40
9.0
 40
10.0
 40
10.0
 40
10.0
 40
11.0
 40
11.0
 40
11.0
 40
12.0
 40
12.0
 40
12.0
 40
13.0
 40
13.0
 40
13.0
 40
14.0
 40
14.0
 40
14.0
 40
15.0
 40
15.0
 40
15.0
 40
16.0
 40
16.0
 40
16.0
 40
17.0
 40
17.0
 40
17.0
 40
18.0
 40
18.0
 40
18.0
 40
19.0
 40
19.0
 40
19.0
 40
20.0
 40
20.0
 40
20.0
 40
21.0
 40
21.0
 40
21.0
 40
22.0
 40
22.0
 40
22.0
 40
23.0
 40
23.0
 40
23.0
 40
24.0
 40
24.0
 40
24.0
 40
25.0
 40
25.0
 40
25.0
 40
26.0
 40
26.0
 40
26.0
 40
27.0
 40
27.0
 40
27.0
 40
28.0
 40
28.0
 40
28.0
 40
29.0
 40
29.0
 40
29.0
 40
30.0
 40
30.0
 40
30.0
 40
31.0
 40
31.0
 40
31.0
 40
32.0
 40
32.0
 40
32.0
 40
33.0
 40
33.0
 40
33.0
 40
34.0
 40
34.0
 40
34.0
 40
35.0
 40
35.0
 40
35.0
 40
36.0
 40
36.0
 40
36.0
 40
37.0
 40
37.0
 40
37.0
 40
38.0
 40
38.0
 40
38.0
 40
39.0
 40
39.0
 40
39.0
 40
40.0
 40
40.0
 40
40.0
 40
40.0
 10
78.633270941840266
 20
159.96405164930553
 10
78.633270941840266
 20
159.96405164930553
 10
79.729500325520831
 20
160.45015462239581
 10
79.729500325520831
 20
160.45015462239581
 10
79.729500325520831
 20
160.45015462239581
 10
80.203545464409714
 20
160.77606065538194
 10
80.203545464409714
 20
160.77606065538194
 10
80.203545464409714
 20
160.77606065538194
 10
80.929082573784711
 20
161.47610405815971
 10
80.929082573784711
 20
161.47610405815971
 10
80.929082573784711
 20
161.47610405815971
 10
81.3628200954861
 20
162.08312988281247
 10
81.3628200954861
 20
162.08312988281247
 10
81.3628200954861
 20
162.08312988281247
 10
81.705951605902769
 20
162.76870388454859
 10
81.705951605902769
 20
162.76870388454859
 10
81.705951605902769
 20
162.76870388454859
 10
82.04253743489582
 20
163.81497938368054
 10
82.04253743489582
 20
163.81497938368054
 10
82.04253743489582
 20
163.81497938368054
 10
82.719154188368051
 20
163.84770779079861
 10
82.719154188368051
 20
163.84770779079861
 10
82.719154188368051
 20
163.84770779079861
 10
82.982703993055551
 20
163.99067925347219
 10
82.982703993055551
 20
163.99067925347219
 10
82.982703993055551
 20
163.99067925347219
 10
83.15530327690972
 20
164.19910753038192
 10
83.15530327690972
 20
164.19910753038192
 10
83.15530327690972
 20
164.19910753038192
 10
83.251421440972209
 20
164.54533962673611
 10
83.251421440972209
 20
164.54533962673611
 10
83.251421440972209
 20
164.54533962673611
 10
83.194232855902769
 20
164.85091959635415
 10
83.194232855902769
 20
164.85091959635415
 10
83.194232855902769
 20
164.85091959635415
 10
83.056429036458326
 20
165.06864963107637
 10
83.056429036458326
 20
165.06864963107637
 10
83.056429036458326
 20
165.06864963107637
 10
82.739480251736097
 20
165.27638888888887
 10
82.739480251736097
 20
165.27638888888887
 10
82.739480251736097
 20
165.27638888888887
 10
82.335026041666666
 20
165.3146294487847
 10
82.335026041666666
 20
165.3146294487847
 10
82.335026041666666
 20
165.3146294487847
 10
82.074921332465266
 20
165.31635199652777
 10
82.074921332465266
 20
165.31635199652777
 10
82.074921332465266
 20
165.31635199652777
 10
81.940218098958326
 20
165.60298394097219
 10
81.940218098958326
 20
165.60298394097219
 10
81.940218098958326
 20
165.60298394097219
 10
81.64910753038194
 20
166.49560818142359
 10
81.64910753038194
 20
166.49560818142359
 10
81.64910753038194
 20
166.49560818142359
 10
81.268079969618043
 20
167.19702962239583
 10
81.268079969618043
 20
167.19702962239583
 10
81.268079969618043
 20
167.19702962239583
 10
80.538064236111097
 20
168.0676052517361
 10
80.538064236111097
 20
168.0676052517361
 10
80.538064236111097
 20
168.0676052517361
 10
79.904855685763877
 20
168.56817762586803
 10
79.904855685763877
 20
168.56817762586803
 10
79.904855685763877
 20
168.56817762586803
 10
78.922658962673609
 20
169.06806098090277
 10
78.922658962673609
 20
169.06806098090277
 10
78.922658962673609
 20
169.06806098090277
 10
78.176795789930551
 20
169.27786729600692
 10
78.176795789930551
 20
169.27786729600692
 10
78.176795789930551
 20
169.27786729600692
 10
77.051627604166654
 20
169.36330566406249
 10
77.051627604166654
 20
169.36330566406249
 10
77.051627604166654
 20
169.36330566406249
 10
76.26717936197916
 20
169.26615397135416
 10
76.26717936197916
 20
169.26615397135416
 10
76.26717936197916
 20
169.26615397135416
 10
74.887763129340271
 20
168.74525553385416
 10
74.887763129340271
 20
168.74525553385416
 10
74.887763129340271
 20
168.74525553385416
 10
73.874560546874989
 20
167.98009982638888
 10
73.874560546874989
 20
167.98009982638888
 10
73.874560546874989
 20
167.98009982638888
 10
73.517993164062489
 20
167.58770345052082
 10
73.517993164062489
 20
167.58770345052082
 10
73.517993164062489
 20
167.58770345052082
 10
73.013631184895829
 20
166.82495930989583
 10
73.013631184895829
 20
166.82495930989583
 10
73.013631184895829
 20
166.82495930989583
 10
72.643283420138886
 20
165.91786566840275
 10
72.643283420138886
 20
165.91786566840275
 10
72.643283420138886
 20
165.91786566840275
 10
72.467928059895826
 20
165.00594889322915
 10
72.467928059895826
 20
165.00594889322915
 10
72.467928059895826
 20
165.00594889322915
 10
72.481019422743046
 20
163.9965359157986
 10
72.481019422743046
 20
163.9965359157986
 10
72.481019422743046
 20
163.9965359157986
 10
72.679112413194431
 20
163.09047580295137
 10
72.679112413194431
 20
163.09047580295137
 10
72.679112413194431
 20
163.09047580295137
 10
73.063240559895831
 20
162.2140435112847
 10
73.063240559895831
 20
162.2140435112847
 10
73.063240559895831
 20
162.2140435112847
 10
73.493877495659717
 20
161.57394476996527
 10
73.493877495659717
 20
161.57394476996527
 10
73.493877495659717
 20
161.57394476996527
 10
73.94415147569444
 20
161.0819851345486
 10
73.94415147569444
 20
161.0819851345486
 10
73.94415147569444
 20
161.0819851345486
 10
74.599064127604166
 20
160.56143120659721
 10
74.599064127604166
 20
160.56143120659721
 10
74.599064127604166
 20
160.56143120659721
 10
75.40625
 20
160.13113878038192
 10
75.40625
 20
160.13113878038192
 10
75.40625
 20
160.13113878038192
 10
75.994327799479166
 20
159.92994520399304
 10
75.994327799479166
 20
159.92994520399304
 10
75.994327799479166
 20
159.92994520399304
 10
77.27728135850694
 20
159.76182454427081
 10
77.27728135850694
 20
159.76182454427081
 10
77.27728135850694
 20
159.76182454427081
 10
78.633270941840266
 20
159.96405164930553
 10
78.633270941840266
 20
159.96405164930553
 97
        0
 75
     0
 76
     1
 98
        1
 10
0.0
 20
0.0
  0
POLYLINE
  5
71
100
AcDbEntity
  8
EBENE_1
 62
   252
100
AcDb2dPolyline
 66
     1
 10
0.0
 20
0.0
 30
0.0
 70
     1
  0
VERTEX
  5
72
100
AcDbEntity
  8
EBENE_1
 62
   252
100
AcDbVertex
100
AcDb2dVertex
 10
78.633271
 20
159.964052
 30
0.0
  0
VERTEX
  5
73
100
AcDbEntity
  8
EBENE_1
 62
   252
100
AcDbVertex
100
AcDb2dVertex
 10
79.7295
 20
160.450155
 30
0.0
  0
VERTEX
  5
74
100
AcDbEntity
  8
EBENE_1
 62
   252
100
AcDbVertex
100
AcDb2dVertex
 10
80.203545
 20
160.776061
 30
0.0
  0
VERTEX
  5
75
100
AcDbEntity
  8
EBENE_1
 62
   252
100
AcDbVertex
100
AcDb2dVertex
 10
80.929083
 20
161.476104
 30
0.0
  0
VERTEX
  5
76
100
AcDbEntity
  8
EBENE_1
 62
   252
100
AcDbVertex
100
AcDb2dVertex
 10
81.36282
 20
162.08313
 30
0.0
  0
VERTEX
  5
77
100
AcDbEntity
  8
EBENE_1
 62
   252
100
AcDbVertex
100
AcDb2dVertex
 10
81.705952
 20
162.768704
 30
0.0
  0
VERTEX
  5
78
100
AcDbEntity
  8
EBENE_1
 62
   252
100
AcDbVertex
100
AcDb2dVertex
 10
82.042537
 20
163.814979
 30
0.0
  0
VERTEX
  5
79
100
AcDbEntity
  8
EBENE_1
 62
   252
100
AcDbVertex
100
AcDb2dVertex
 10
82.719154
 20
163.847708
 30
0.0
  0
VERTEX
  5
7A
100
AcDbEntity
  8
EBENE_1
 62
   252
100
AcDbVertex
100
AcDb2dVertex
 10
82.982704
 20
163.990679
 30
0.0
  0
VERTEX
  5
7B
100
AcDbEntity
  8
EBENE_1
 62
   252
100
AcDbVertex
100
AcDb2dVertex
 10
83.155303
 20
164.199108
 30
0.0
  0
VERTEX
  5
7C
100
AcDbEntity
  8
EBENE_1
 62
   252
100
AcDbVertex
100
AcDb2dVertex
 10
83.251421
 20
164.54534
 30
0.0
  0
VERTEX
  5
7D
100
AcDbEntity
  8
EBENE_1
 62
   252
100
AcDbVertex
100
AcDb2dVertex
 10
83.194233
 20
164.85092
 30
0.0
  0
VERTEX
  5
7E
100
AcDbEntity
  8
EBENE_1
 62
   252
100
AcDbVertex
100
AcDb2dVertex
 10
83.056429
 20
165.06865
 30
0.0
  0
VERTEX
  5
7F
100
AcDbEntity
  8
EBENE_1
 62
   252
100
AcDbVertex
100
AcDb2dVertex
 10
82.73948
 20
165.276389
 30
0.0
  0
VERTEX
  5
80
100
AcDbEntity
  8
EBENE_1
 62
   252
100
AcDbVertex
100
AcDb2dVertex
 10
82.335026
 20
165.314629
 30
0.0
  0
VERTEX
  5
81
100
AcDbEntity
  8
EBENE_1
 62
   252
100
AcDbVertex
100
AcDb2dVertex
 10
82.074921
 20
165.316352
 30
0.0
  0
VERTEX
  5
82
100
AcDbEntity
  8
EBENE_1
 62
   252
100
AcDbVertex
100
AcDb2dVertex
 10
81.940218
 20
165.602984
 30
0.0
  0
VERTEX
  5
83
100
AcDbEntity
  8
EBENE_1
 62
   252
100
AcDbVertex
100
AcDb2dVertex
 10
81.649108
 20
166.495608
 30
0.0
  0
VERTEX
  5
84
100
AcDbEntity
  8
EBENE_1
 62
   252
100
AcDbVertex
100
AcDb2dVertex
 10
81.26808
 20
167.19703
 30
0.0
  0
VERTEX
  5
85
100
AcDbEntity
  8
EBENE_1
 62
   252
100
AcDbVertex
100
AcDb2dVertex
 10
80.538064
 20
168.067605
 30
0.0
  0
VERTEX
  5
86
100
AcDbEntity
  8
EBENE_1
 62
   252
100
AcDbVertex
100
AcDb2dVertex
 10
79.904856
 20
168.568178
 30
0.0
  0
VERTEX
  5
87
100
AcDbEntity
  8
EBENE_1
 62
   252
100
AcDbVertex
100
AcDb2dVertex
 10
78.922659
 20
169.068061
 30
0.0
  0
VERTEX
  5
88
100
AcDbEntity
  8
EBENE_1
 62
   252
100
AcDbVertex
100
AcDb2dVertex
 10
78.176796
 20
169.277867
 30
0.0
  0
VERTEX
  5
89
100
AcDbEntity
  8
EBENE_1
 62
   252
100
AcDbVertex
100
AcDb2dVertex
 10
77.051628
 20
169.363306
 30
0.0
  0
VERTEX
  5
8A
100
AcDbEntity
  8
EBENE_1
 62
   252
100
AcDbVertex
100
AcDb2dVertex
 10
76.267179
 20
169.266154
 30
0.0
  0
VERTEX
  5
8B
100
AcDbEntity
  8
EBENE_1
 62
   252
100
AcDbVertex
100
AcDb2dVertex
 10
74.887763
 20
168.745256
 30
0.0
  0
VERTEX
  5
8C
100
AcDbEntity
  8
EBENE_1
 62
   252
100
AcDbVertex
100
AcDb2dVertex
 10
73.874561
 20
167.9801
 30
0.0
  0
VERTEX
  5
8D
100
AcDbEntity
  8
EBENE_1
 62
   252
100
AcDbVertex
100
AcDb2dVertex
 10
73.517993
 20
167.587703
 30
0.0
  0
VERTEX
  5
8E
100
AcDbEntity
  8
EBENE_1
 62
   252
100
AcDbVertex
100
AcDb2dVertex
 10
73.013631
 20
166.824959
 30
0.0
  0
VERTEX
  5
8F
100
AcDbEntity
  8
EBENE_1
 62
   252
100
AcDbVertex
100
AcDb2dVertex
 10
72.643283
 20
165.917866
 30
0.0
  0
VERTEX
  5
90
100
AcDbEntity
  8
EBENE_1
 62
   252
100
AcDbVertex
100
AcDb2dVertex
 10
72.467928
 20
165.005949
 30
0.0
  0
VERTEX
  5
91
100
AcDbEntity
  8
EBENE_1
 62
   252
100
AcDbVertex
100
AcDb2dVertex
 10
72.481019
 20
163.996536
 30
0.0
  0
VERTEX
  5
92
100
AcDbEntity
  8
EBENE_1
 62
   252
100
AcDbVertex
100
AcDb2dVertex
 10
72.679112
 20
163.090476
 30
0.0
  0
VERTEX
  5
93
100
AcDbEntity
  8
EBENE_1
 62
   252
100
AcDbVertex
100
AcDb2dVertex
 10
73.063241
 20
162.214044
 30
0.0
  0
VERTEX
  5
94
100
AcDbEntity
  8
EBENE_1
 62
   252
100
AcDbVertex
100
AcDb2dVertex
 10
73.493877
 20
161.573945
 30
0.0
  0
VERTEX
  5
95
100
AcDbEntity
  8
EBENE_1
 62
   252
100
AcDbVertex
100
AcDb2dVertex
 10
73.944151
 20
161.081985
 30
0.0
  0
VERTEX
  5
96
100
AcDbEntity
  8
EBENE_1
 62
   252
100
AcDbVertex
100
AcDb2dVertex
 10
74.599064
 20
160.561431
 30
0.0
  0
VERTEX
  5
97
100
AcDbEntity
  8
EBENE_1
 62
   252
100
AcDbVertex
100
AcDb2dVertex
 10
75.40625
 20
160.131139
 30
0.0
  0
VERTEX
  5
98
100
AcDbEntity
  8
EBENE_1
 62
   252
100
AcDbVertex
100
AcDb2dVertex
 10
75.994328
 20
159.929945
 30
0.0
  0
VERTEX
  5
99
100
AcDbEntity
  8
EBENE_1
 62
   252
100
AcDbVertex
100
AcDb2dVertex
 10
77.277281
 20
159.761825
 30
0.0
  0
SEQEND
  5
9A
100
AcDbEntity
  8
EBENE_1
 62
   252
  0
CIRCLE
  5
70
100
AcDbEntity
  8
EBENE_1
 62
   252
100
AcDbCircle
 10
75.001279
 20
166.814796
 30
0.0
 40
0.496266
  0
CIRCLE
  5
6F
100
AcDbEntity
  8
EBENE_1
 62
   252
100
AcDbCircle
 10
79.501435
 20
166.814624
 30
0.0
 40
0.496438
  0
CIRCLE
  5
6E
100
AcDbEntity
  8
EBENE_1
 62
   252
100
AcDbCircle
 10
77.251271
 20
164.564977
 30
0.0
 40
0.496266
  0
CIRCLE
  5
6D
100
AcDbEntity
  8
EBENE_1
 62
   252
100
AcDbCircle
 10
75.001451
 20
162.31464
 30
0.0
 40
0.496438
  0
CIRCLE
  5
6C
100
AcDbEntity
  8
EBENE_1
 62
   252
100
AcDbCircle
 10
79.501435
 20
162.31464
 30
0.0
 40
0.496438
  0
CIRCLE
  5
6B
100
AcDbEntity
  8
EBENE_1
 62
     7
100
AcDbCircle
 10
105.028559
 20
162.071761
 30
0.0
 40
0.24753
  0
HATCH
  5
6A
100
AcDbEntity
  8
EBENE_1
 62
     7
100
AcDbHatch
 10
0.0
 20
0.0
 30
0.0
210
0.0
220
0.0
230
1.0
  2
SOLID
 70
     1
 71
     0
 91
        1
 92
        1
 93
        1
 72
     4
 94
        3
 73
     0
 74
     0
 95
       17
 96
       13
 40
0.0
 40
0.0
 40
0.0
 40
0.0
 40
1.0
 40
1.0
 40
1.0
 40
2.0
 40
2.0
 40
2.0
 40
3.0
 40
3.0
 40
3.0
 40
4.0
 40
4.0
 40
4.0
 40
4.0
 10
105.02855902777777
 20
162.31929117838541
 10
104.89213324652776
 20
162.31929117838541
 10
104.781201171875
 20
162.20870361328124
 10
104.781201171875
 20
162.07176106770831
 10
104.781201171875
 20
161.93533528645833
 10
104.89213324652776
 20
161.82405870225693
 10
105.02855902777777
 20
161.82423095703123
 10
105.16498480902777
 20
161.82423095703123
 10
105.27660590277777
 20
161.93533528645833
 10
105.27660590277777
 20
162.07176106770831
 10
105.27660590277777
 20
162.20870361328124
 10
105.16498480902777
 20
162.31929117838541
 10
105.02855902777777
 20
162.31929117838541
 97
        0
 75
     0
 76
     1
 98
        1
 10
0.0
 20
0.0
  0
CIRCLE
  5
69
100
AcDbEntity
  8
EBENE_1
 62
     7
100
AcDbCircle
 10
107.278206
 20
164.321753
 30
0.0
 40
0.24753
  0
HATCH
  5
68
100
AcDbEntity
  8
EBENE_1
 62
     7
100
AcDbHatch
 10
0.0
 20
0.0
 30
0.0
210
0.0
220
0.0
230
1.0
  2
SOLID
 70
     1
 71
     0
 91
        1
 92
        1
 93
        1
 72
     4
 94
        3
 73
     0
 74
     0
 95
       17
 96
       13
 40
0.0
 40
0.0
 40
0.0
 40
0.0
 40
1.0
 40
1.0
 40
1.0
 40
2.0
 40
2.0
 40
2.0
 40
3.0
 40
3.0
 40
3.0
 40
4.0
 40
4.0
 40
4.0
 40
4.0
 10
107.27820638020832
 20
164.56928304036458
 10
107.14178059895832
 20
164.56928304036458
 10
107.03153754340276
 20
164.45869547526041
 10
107.03153754340276
 20
164.32175292968748
 10
107.03153754340276
 20
164.18532714843749
 10
107.14178059895832
 20
164.0742228190104
 10
107.27820638020832
 20
164.0742228190104
 10
107.41463216145833
 20
164.0742228190104
 10
107.52694227430554
 20
164.18498263888887
 10
107.52694227430554
 20
164.32140842013888
 10
107.52625325520832
 20
164.45869547526041
 10
107.41463216145833
 20
164.56928304036458
 10
107.27820638020832
 20
164.56928304036458
 97
        0
 75
     0
 76
     1
 98
        1
 10
0.0
 20
0.0
  0
CIRCLE
  5
67
100
AcDbEntity
  8
EBENE_1
 62
     7
100
AcDbCircle
 10
109.529232
 20
162.071589
 30
0.0
 40
0.24753
  0
HATCH
  5
66
100
AcDbEntity
  8
EBENE_1
 62
     7
100
AcDbHatch
 10
0.0
 20
0.0
 30
0.0
210
0.0
220
0.0
230
1.0
  2
SOLID
 70
     1
 71
     0
 91
        1
 92
        1
 93
        1
 72
     4
 94
        3
 73
     0
 74
     0
 95
       17
 96
       13
 40
0.0
 40
0.0
 40
0.0
 40
0.0
 40
1.0
 40
1.0
 40
1.0
 40
2.0
 40
2.0
 40
2.0
 40
3.0
 40
3.0
 40
3.0
 40
4.0
 40
4.0
 40
4.0
 40
4.0
 10
109.52923177083332
 20
162.31911892361109
 10
109.39142795138888
 20
162.31911892361109
 10
109.28118489583332
 20
162.20853135850692
 10
109.28118489583332
 20
162.07176106770831
 10
109.28118489583332
 20
161.93533528645833
 10
109.39142795138888
 20
161.82405870225693
 10
109.52923177083332
 20
161.82405870225693
 10
109.66565755208332
 20
161.82405870225693
 10
109.77590060763887
 20
161.93533528645833
 10
109.77590060763887
 20
162.07176106770831
 10
109.77590060763887
 20
162.20853135850692
 10
109.66565755208332
 20
162.31911892361109
 10
109.52923177083332
 20
162.31911892361109
 97
        0
 75
     0
 76
     1
 98
        1
 10
0.0
 20
0.0
  0
CIRCLE
  5
65
100
AcDbEntity
  8
EBENE_1
 62
     7
100
AcDbCircle
 10
109.528887
 20
166.571486
 30
0.0
 40
0.247616
  0
HATCH
  5
64
100
AcDbEntity
  8
EBENE_1
 62
     7
100
AcDbHatch
 10
0.0
 20
0.0
 30
0.0
210
0.0
220
0.0
230
1.0
  2
SOLID
 70
     1
 71
     0
 91
        1
 92
        1
 93
        1
 72
     4
 94
        3
 73
     0
 74
     0
 95
       17
 96
       13
 40
0.0
 40
0.0
 40
0.0
 40
0.0
 40
1.0
 40
1.0
 40
1.0
 40
2.0
 40
2.0
 40
2.0
 40
3.0
 40
3.0
 40
3.0
 40
4.0
 40
4.0
 40
4.0
 40
4.0
 10
109.5285427517361
 20
166.81910264756942
 10
109.39142795138888
 20
166.81910264756942
 10
109.28118489583332
 20
166.70851508246525
 10
109.28118489583332
 20
166.57174479166665
 10
109.28118489583332
 20
166.43531901041666
 10
109.39142795138888
 20
166.32421468098957
 10
109.52923177083332
 20
166.32387017144094
 10
109.66565755208332
 20
166.32387017144094
 10
109.77590060763887
 20
166.43531901041666
 10
109.77590060763887
 20
166.57174479166665
 10
109.77590060763887
 20
166.70851508246525
 10
109.66496853298609
 20
166.81910264756942
 10
109.5285427517361
 20
166.81910264756942
 97
        0
 75
     0
 76
     1
 98
        1
 10
0.0
 20
0.0
  0
CIRCLE
  5
63
100
AcDbEntity
  8
EBENE_1
 62
     7
100
AcDbCircle
 10
105.028559
 20
166.571831
 30
0.0
 40
0.247616
  0
HATCH
  5
62
100
AcDbEntity
  8
EBENE_1
 62
     7
100
AcDbHatch
 10
0.0
 20
0.0
 30
0.0
210
0.0
220
0.0
230
1.0
  2
SOLID
 70
     1
 71
     0
 91
        1
 92
        1
 93
        1
 72
     4
 94
        3
 73
     0
 74
     0
 95
       17
 96
       13
 40
0.0
 40
0.0
 40
0.0
 40
0.0
 40
1.0
 40
1.0
 40
1.0
 40
2.0
 40
2.0
 40
2.0
 40
3.0
 40
3.0
 40
3.0
 40
4.0
 40
4.0
 40
4.0
 40
4.0
 10
105.02855902777777
 20
166.81944715711805
 10
104.89213324652776
 20
166.81910264756942
 10
104.781201171875
 20
166.70851508246525
 10
104.781201171875
 20
166.57191704644094
 10
104.781201171875
 20
166.43549126519096
 10
104.89213324652776
 20
166.32421468098957
 10
105.02855902777777
 20
166.32421468098957
 10
105.16498480902777
 20
166.32421468098957
 10
105.27660590277777
 20
166.43531901041666
 10
105.27660590277777
 20
166.57174479166665
 10
105.27660590277777
 20
166.70851508246525
 10
105.16498480902777
 20
166.81944715711805
 10
105.02855902777777
 20
166.81944715711805
 97
        0
 75
     0
 76
     1
 98
        1
 10
0.0
 20
0.0
  0
LINE
  5
61
100
AcDbEntity
  8
EBENE_1
 62
   252
100
AcDbLine
 10
102.543095
 20
163.547468
 30
0.0
 11
102.543439
 21
159.277272
 31
0.0
  0
LINE
  5
60
100
AcDbEntity
  8
EBENE_1
 62
   252
100
AcDbLine
 10
102.523458
 20
165.071233
 30
0.0
 11
102.523458
 21
169.557609
 31
0.0
  0
LINE
  5
5F
100
AcDbEntity
  8
EBENE_1
 62
   252
100
AcDbLine
 10
102.028398
 20
163.571583
 30
0.0
 11
102.541717
 21
163.570378
 31
0.0
  0
LINE
  5
5E
100
AcDbEntity
  8
EBENE_1
 62
   252
100
AcDbLine
 10
102.028398
 20
165.071578
 30
0.0
 11
102.541717
 21
165.071578
 31
0.0
  0
SPLINE
  5
5D
100
AcDbEntity
  8
EBENE_1
 62
   252
100
AcDbSpline
210
0.0
220
0.0
230
1.0
 70
     8
 71
     3
 72
    11
 73
     7
 74
     0
 42
0.00000001
 43
0.00000001
 40
0.0
 40
0.0
 40
0.0
 40
0.0
 40
1.0
 40
1.0
 40
1.0
 40
2.0
 40
2.0
 40
2.0
 40
2.0
 10
102.02839762369791
 20
165.07157796223956
 30
0.0
 10
101.61464165581596
 20
165.07157796223956
 30
0.0
 10
101.27874484592013
 20
164.73602566189234
 30
0.0
 10
101.27908935546874
 20
164.32175292968748
 30
0.0
 10
101.27874484592013
 20
163.90782470703124
 30
0.0
 10
101.61464165581596
 20
163.5719278971354
 30
0.0
 10
102.02839762369791
 20
163.5715833875868
 30
0.0
  0
CIRCLE
  5
5C
100
AcDbEntity
  8
EBENE_1
 62
     7
100
AcDbCircle
 10
107.340218
 20
164.432599
 30
0.0
 40
7.311096
  0
LINE
  5
5B
100
AcDbEntity
  8
EBENE_1
 62
   252
100
AcDbLine
 10
102.52208
 20
169.391383
 30
0.0
 11
102.450077
 21
169.46373
 31
0.0
  0
LINE
  5
5A
100
AcDbEntity
  8
EBENE_1
 62
   252
100
AcDbLine
 10
102.520702
 20
169.128867
 30
0.0
 11
102.322609
 21
169.32541
 31
0.0
  0
LINE
  5
59
100
AcDbEntity
  8
EBENE_1
 62
   252
100
AcDbLine
 10
102.518979
 20
168.865145
 30
0.0
 11
102.194796
 21
169.188639
 31
0.0
  0
LINE
  5
58
100
AcDbEntity
  8
EBENE_1
 62
   252
100
AcDbLine
 10
102.515879
 20
168.602801
 30
0.0
 11
102.067672
 21
169.051008
 31
0.0
  0
LINE
  5
57
100
AcDbEntity
  8
EBENE_1
 62
   252
100
AcDbLine
 10
102.514845
 20
168.338045
 30
0.0
 11
101.940203
 21
168.914926
 31
0.0
  0
LINE
  5
56
100
AcDbEntity
  8
EBENE_1
 62
   252
100
AcDbLine
 10
102.5114
 20
168.076735
 30
0.0
 11
101.81239
 21
168.775228
 31
0.0
  0
LINE
  5
55
100
AcDbEntity
  8
EBENE_1
 62
   252
100
AcDbLine
 10
102.510022
 20
167.812324
 30
0.0
 11
101.704559
 21
168.61727
 31
0.0
  0
LINE
  5
54
100
AcDbEntity
  8
EBENE_1
 62
   252
100
AcDbLine
 10
102.508644
 20
167.54998
 30
0.0
 11
101.598105
 21
168.460002
 31
0.0
  0
LINE
  5
53
100
AcDbEntity
  8
EBENE_1
 62
   252
100
AcDbLine
 10
102.505543
 20
167.287636
 30
0.0
 11
101.490274
 21
168.302905
 31
0.0
  0
LINE
  5
52
100
AcDbEntity
  8
EBENE_1
 62
   252
100
AcDbLine
 10
102.503821
 20
167.023225
 30
0.0
 11
101.383476
 21
168.14357
 31
0.0
  0
LINE
  5
51
100
AcDbEntity
  8
EBENE_1
 62
   252
100
AcDbLine
 10
102.502787
 20
166.760708
 30
0.0
 11
101.277022
 21
167.985612
 31
0.0
  0
LINE
  5
50
100
AcDbEntity
  8
EBENE_1
 62
   252
100
AcDbLine
 10
102.500031
 20
166.496642
 30
0.0
 11
101.187105
 21
167.809395
 31
0.0
  0
LINE
  5
4F
100
AcDbEntity
  8
EBENE_1
 62
   252
100
AcDbLine
 10
102.498309
 20
166.233953
 30
0.0
 11
101.103045
 21
167.629389
 31
0.0
  0
LINE
  5
4E
100
AcDbEntity
  8
EBENE_1
 62
   252
100
AcDbLine
 10
102.496586
 20
165.970231
 30
0.0
 11
101.017607
 21
167.449383
 31
0.0
  0
LINE
  5
4D
100
AcDbEntity
  8
EBENE_1
 62
   252
100
AcDbLine
 10
102.493141
 20
165.707543
 30
0.0
 11
100.933546
 21
167.269377
 31
0.0
  0
LINE
  5
4C
100
AcDbEntity
  8
EBENE_1
 62
   252
100
AcDbLine
 10
102.492107
 20
165.445199
 30
0.0
 11
100.848108
 21
167.08782
 31
0.0
  0
LINE
  5
4B
100
AcDbEntity
  8
EBENE_1
 62
   252
100
AcDbLine
 10
102.49004
 20
165.181132
 30
0.0
 11
100.764048
 21
166.907642
 31
0.0
  0
LINE
  5
4A
100
AcDbEntity
  8
EBENE_1
 62
   252
100
AcDbLine
 10
100.696868
 20
166.709721
 30
0.0
 11
102.336045
 21
165.070544
 31
0.0
  0
LINE
  5
49
100
AcDbEntity
  8
EBENE_1
 62
   252
100
AcDbLine
 10
100.635201
 20
166.505599
 30
0.0
 11
102.071806
 21
165.068822
 31
0.0
  0
LINE
  5
48
100
AcDbEntity
  8
EBENE_1
 62
   252
100
AcDbLine
 10
100.573534
 20
166.301994
 30
0.0
 11
101.83685
 21
165.03885
 31
0.0
  0
LINE
  5
47
100
AcDbEntity
  8
EBENE_1
 62
   252
100
AcDbLine
 10
100.512211
 20
166.09925
 30
0.0
 11
101.659428
 21
164.951689
 31
0.0
  0
LINE
  5
46
100
AcDbEntity
  8
EBENE_1
 62
   252
100
AcDbLine
 10
100.469836
 20
165.875663
 30
0.0
 11
101.506466
 21
164.839551
 31
0.0
  0
LINE
  5
45
100
AcDbEntity
  8
EBENE_1
 62
   252
100
AcDbLine
 10
101.389677
 20
164.690723
 30
0.0
 11
100.432629
 21
165.64932
 31
0.0
  0
LINE
  5
44
100
AcDbEntity
  8
EBENE_1
 62
   252
100
AcDbLine
 10
102.538616
 20
163.276339
 30
0.0
 11
102.250606
 21
163.563832
 31
0.0
  0
LINE
  5
43
100
AcDbEntity
  8
EBENE_1
 62
   252
100
AcDbLine
 10
101.31044
 20
164.506066
 30
0.0
 11
100.3937
 21
165.421427
 31
0.0
  0
LINE
  5
42
100
AcDbEntity
  8
EBENE_1
 62
   252
100
AcDbLine
 10
102.539994
 20
163.010722
 30
0.0
 11
101.955017
 21
163.594149
 31
0.0
  0
LINE
  5
41
100
AcDbEntity
  8
EBENE_1
 62
   252
100
AcDbLine
 10
101.281845
 20
164.268182
 30
0.0
 11
100.355804
 21
165.194568
 31
0.0
  0
LINE
  5
40
100
AcDbEntity
  8
EBENE_1
 62
   252
100
AcDbLine
 10
100.335133
 20
164.950138
 30
0.0
 11
102.539994
 21
162.745105
 31
0.0
  0
LINE
  5
3F
100
AcDbEntity
  8
EBENE_1
 62
   252
100
AcDbLine
 10
100.324798
 20
164.695201
 30
0.0
 11
102.539994
 21
162.480005
 31
0.0
  0
LINE
  5
3E
100
AcDbEntity
  8
EBENE_1
 62
   252
100
AcDbLine
 10
100.314118
 20
164.441642
 30
0.0
 11
102.541717
 21
162.21456
 31
0.0
  0
LINE
  5
3D
100
AcDbEntity
  8
EBENE_1
 62
   252
100
AcDbLine
 10
100.324798
 20
164.165518
 30
0.0
 11
102.541372
 21
161.948771
 31
0.0
  0
LINE
  5
3C
100
AcDbEntity
  8
EBENE_1
 62
   252
100
AcDbLine
 10
100.347191
 20
163.878197
 30
0.0
 11
102.541717
 21
161.681604
 31
0.0
  0
LINE
  5
3B
100
AcDbEntity
  8
EBENE_1
 62
   252
100
AcDbLine
 10
100.369929
 20
163.590015
 30
0.0
 11
102.543095
 21
161.416504
 31
0.0
  0
LINE
  5
3A
100
AcDbEntity
  8
EBENE_1
 62
   252
100
AcDbLine
 10
100.417815
 20
163.276339
 30
0.0
 11
102.543095
 21
161.150887
 31
0.0
  0
LINE
  5
39
100
AcDbEntity
  8
EBENE_1
 62
   252
100
AcDbLine
 10
100.456401
 20
163.023641
 30
0.0
 11
102.501754
 21
160.976393
 31
0.0
  0
LINE
  5
38
100
AcDbEntity
  8
EBENE_1
 62
   252
100
AcDbLine
 10
100.533915
 20
162.679131
 30
0.0
 11
102.543095
 21
160.619309
 31
0.0
  0
LINE
  5
37
100
AcDbEntity
  8
EBENE_1
 62
   252
100
AcDbLine
 10
100.55183
 20
162.365972
 30
0.0
 11
102.544817
 21
160.354553
 31
0.0
  0
LINE
  5
36
100
AcDbEntity
  8
EBENE_1
 62
   252
100
AcDbLine
 10
100.692734
 20
161.968925
 30
0.0
 11
102.545162
 21
160.089281
 31
0.0
  0
LINE
  5
35
100
AcDbEntity
  8
EBENE_1
 62
   252
100
AcDbLine
 10
100.899095
 20
161.547245
 30
0.0
 11
102.545162
 21
159.823147
 31
0.0
  0
LINE
  5
34
100
AcDbEntity
  8
EBENE_1
 62
   252
100
AcDbLine
 10
101.403113
 20
160.700958
 30
0.0
 11
102.54654
 21
159.557703
 31
0.0
  0
LINE
  5
33
100
AcDbEntity
  8
EBENE_1
 62
   252
100
AcDbLine
 10
101.147142
 20
160.976737
 30
0.0
 11
102.405636
 21
159.44901
 31
0.0
  0
CIRCLE
  5
32
100
AcDbEntity
  8
EBENE_1
 62
     7
100
AcDbCircle
 10
92.690811
 20
127.826134
 30
0.0
 40
10.499962
  0
MTEXT
  5
31
100
AcDbEntity
  8
EBENE_1
 62
     7
100
AcDbMText
 10
65.380161
 20
143.720033
 30
0.0
 40
3.149802
 41
0.0
 71
     1
 72
     2
  1
\fMyriad Roman|b0|i0; 10.5 R
  7
STD
210
0.0
220
0.0
230
1.0
 11
1.000001
 21
0.0
 31
0.0
 73
     1
 44
1.0
  0
LINE
  5
30
100
AcDbEntity
  8
EBENE_1
 62
     7
100
AcDbLine
 10
77.294851
 20
142.059201
 30
0.0
 11
84.999463
 21
135.455642
 31
0.0
  0
POLYLINE
  5
2B
100
AcDbEntity
  8
EBENE_1
 62
     7
100
AcDb2dPolyline
 66
     1
 10
0.0
 20
0.0
 30
0.0
 70
     1
  0
VERTEX
  5
2C
100
AcDbEntity
  8
EBENE_1
 62
     7
100
AcDbVertex
100
AcDb2dVertex
 10
85.140023
 20
135.335064
 30
0.0
  0
VERTEX
  5
2D
100
AcDbEntity
  8
EBENE_1
 62
     7
100
AcDbVertex
100
AcDb2dVertex
 10
81.434134
 20
137.14305
 30
0.0
  0
VERTEX
  5
2E
100
AcDbEntity
  8
EBENE_1
 62
     7
100
AcDbVertex
100
AcDb2dVertex
 10
82.715881
 20
138.670605
 30
0.0
  0
SEQEND
  5
2F
100
AcDbEntity
  8
EBENE_1
 62
     7
  0
HATCH
  5
2A
100
AcDbEntity
  8
EBENE_1
 62
     7
100
AcDbHatch
 10
0.0
 20
0.0
 30
0.0
210
0.0
220
0.0
230
1.0
  2
SOLID
 70
     1
 71
     0
 91
        1
 92
        3
 72
     0
 73
     1
 93
        3
 10
85.140022786458331
 20
135.33506401909722
 10
81.434133572048609
 20
137.14305013020831
 10
82.715881347656236
 20
138.67060546874998
 97
        0
 75
     0
 76
     1
 98
        1
 10
0.0
 20
0.0
  0
ELLIPSE
  5
29
100
AcDbEntity
  8
EBENE_1
 62
     7
100
AcDbEllipse
 10
92.690639
 20
127.825445
 30
0.0
 11
1.3985365125868054
 21
0.0
 31
0.0
210
0.0
220
0.0
230
1.0
 40
0.952334
 41
0.0
 42
6.2831853071795862
  0
ENDSEC
  0
SECTION
  2
OBJECTS
  0
DICTIONARY
  5
19
100
AcDbDictionary
280
     0
281
     1
  3
ACAD_GROUP
350
1A
  3
ACAD_MLINESTYLE
350
1B
  3
ACAD_LAYOUT
350
1E
  3
ACAD_PLOTSETTINGS
350
22
  3
ACAD_PLOTSTYLENAME
350
1F
  3
ACAD_WIPEOUT_VARS
350
23
  0
DICTIONARY
  5
1A
102
{ACAD_REACTORS
330
19
102
}
100
AcDbDictionary
280
     0
281
     1
  0
DICTIONARY
  5
1B
102
{ACAD_REACTORS
330
19
102
}
100
AcDbDictionary
280
     0
281
     1
  3
Standard
350
1C
  0
MLINESTYLE
  5
1C
102
{ACAD_REACTORS
330
1B
102
}
100
AcDbMlineStyle
  2
Standard
 70
     0
  3

 62
     0
 51
90.0
 52
90.0
 71
     2
 49
0.5
 62
   256
  6
BYLAYER
 49
-0.5
 62
   256
  6
BYLAYER
  0
ACDBDICTIONARYWDFLT
  5
1F
102
{ACAD_REACTORS
330
19
102
}
100
AcDbDictionary
281
     1
  3
Normal
350
1D
100
AcDbDictionaryWithDefault
340
1D
  0
ACDBPLACEHOLDER
  5
1D
102
{ACAD_REACTORS
330
1F
102
}
  0
LAYOUT
  5
20
102
{ACAD_REACTORS
330
1E
102
}
100
AcDbPlotSettings
  1

  2

  4

  6

 40
0.0
 41
0.0
 42
0.0
 43
0.0
 44
0.0
 45
0.0
 46
0.0
 47
0.0
 48
0.0
 49
0.0
140
0.0
141
0.0
142
1.0
143
1.0
 70
  1024
 72
     0
 73
     0
 74
     0
  7

 75
     0
147
1.0
148
0.0
149
0.0
100
AcDbLayout
  1
Model
 70
     0
 71
     0
 10
0.0
 20
0.0
 11
0.0
 21
0.0
 12
0.0
 22
0.0
 32
0.0
 14
0.0
 24
0.0
 34
0.0
 15
0.0
 25
0.0
 35
0.0
146
0.0
 13
0.0
 23
0.0
 33
0.0
 16
0.0
 26
0.0
 36
0.0
 17
0.0
 27
0.0
 37
0.0
 76
     0
330
A
331
0
345
0
346
0
  0
LAYOUT
  5
21
102
{ACAD_REACTORS
330
1E
102
}
100
AcDbPlotSettings
  1

  2

  4

  6

 40
0.0
 41
0.0
 42
0.0
 43
0.0
 44
0.0
 45
0.0
 46
0.0
 47
0.0
 48
0.0
 49
0.0
140
0.0
141
0.0
142
1.0
143
1.0
 70
     0
 72
     0
 73
     0
 74
     0
  7

 75
     0
147
1.0
148
0.0
149
0.0
100
AcDbLayout
  1
Layout1
 70
     0
 71
     0
 10
0.0
 20
0.0
 11
0.0
 21
0.0
 12
0.0
 22
0.0
 32
0.0
 14
0.0
 24
0.0
 34
0.0
 15
0.0
 25
0.0
 35
0.0
146
0.0
 13
0.0
 23
0.0
 33
0.0
 16
0.0
 26
0.0
 36
0.0
 17
0.0
 27
0.0
 37
0.0
 76
     0
330
B
331
0
345
0
346
0
  0
DICTIONARY
  5
1E
102
{ACAD_REACTORS
330
19
102
}
100
AcDbDictionary
280
     0
281
     1
  3
Layout1
350
21
  3
Model
350
20
  0
DICTIONARY
  5
22
102
{ACAD_REACTORS
330
19
102
}
100
AcDbDictionary
280
     0
281
     1
  0
WIPEOUTVARIABLES
  5
23
100
AcDbWipeoutVariables
 70
     1
  0
ENDSEC
  0
EOF
