  0
SECTION
  2
HEADER
  9
$ACADVER
  1
AC1015
  9
$ACADMAINTVER
 70
     6
  9
$DWGCODEPAGE
  3
ANSI_932
  9
$INSBASE
 10
0.0
 20
0.0
 30
0.0
  9
$EXTMIN
 10
-15.427999
 20
83.636583
 30
1.000000E+20
  9
$EXTMAX
 10
216.888742
 20
213.73493
 30
-1.000000E+20
  9
$LIMMIN
 10
-15.427999
 20
83.636583
  9
$LIMMAX
 10
216.888742
 20
213.73493
  9
$ORTHOMODE
 70
     0
  9
$REGENMODE
 70
     1
  9
$FILLMODE
 70
     1
  9
$QTEXTMODE
 70
     0
  9
$MIRRTEXT
 70
     1
  9
$LTSCALE
 40
1.0
  9
$ATTMODE
 70
     1
  9
$TEXTSIZE
 40
0.2
  9
$TRACEWID
 40
0.05
  9
$TEXTSTYLE
  7
Standard
  9
$CLAYER
  8
0
  9
$CELTYPE
  6
Continuous
  9
$CECOLOR
 62
   256
  9
$CELTSCALE
 40
1.0
  9
$DISPSILH
 70
     0
  9
$DIMSCALE
 40
1.0
  9
$DIMASZ
 40
0.18
  9
$DIMEXO
 40
0.0625
  9
$DIMDLI
 40
0.38
  9
$DIMRND
 40
0.0
  9
$DIMDLE
 40
0.0
  9
$DIMEXE
 40
0.18
  9
$DIMTP
 40
0.0
  9
$DIMTM
 40
0.0
  9
$DIMTXT
 40
0.18
  9
$DIMCEN
 40
0.09
  9
$DIMTSZ
 40
0.0
  9
$DIMTOL
 70
     0
  9
$DIMLIM
 70
     0
  9
$DIMTIH
 70
     1
  9
$DIMTOH
 70
     1
  9
$DIMSE1
 70
     0
  9
$DIMSE2
 70
     0
  9
$DIMTAD
 70
     0
  9
$DIMZIN
 70
     0
  9
$DIMBLK
  1

  9
$DIMASO
 70
     1
  9
$DIMSHO
 70
     1
  9
$DIMPOST
  1

  9
$DIMAPOST
  1

  9
$DIMALT
 70
     0
  9
$DIMALTD
 70
     2
  9
$DIMALTF
 40
25.4
  9
$DIMLFAC
 40
1.0
  9
$DIMTOFL
 70
     0
  9
$DIMTVP
 40
0.0
  9
$DIMTIX
 70
     0
  9
$DIMSOXD
 70
     0
  9
$DIMSAH
 70
     0
  9
$DIMBLK1
  1

  9
$DIMBLK2
  1

  9
$DIMSTYLE
  2
Standard
  9
$DIMCLRD
 70
     0
  9
$DIMCLRE
 70
     0
  9
$DIMCLRT
 70
     0
  9
$DIMTFAC
 40
1.0
  9
$DIMGAP
 40
0.09
  9
$DIMJUST
 70
     0
  9
$DIMSD1
 70
     0
  9
$DIMSD2
 70
     0
  9
$DIMTOLJ
 70
     1
  9
$DIMTZIN
 70
     0
  9
$DIMALTZ
 70
     0
  9
$DIMALTTZ
 70
     0
  9
$DIMUPT
 70
     0
  9
$DIMDEC
 70
     4
  9
$DIMTDEC
 70
     4
  9
$DIMALTU
 70
     2
  9
$DIMALTTD
 70
     2
  9
$DIMTXSTY
  7
Standard
  9
$DIMAUNIT
 70
     0
  9
$DIMADEC
 70
     0
  9
$DIMALTRND
 40
0.0
  9
$DIMAZIN
 70
     0
  9
$DIMDSEP
 70
     0
  9
$DIMATFIT
 70
     3
  9
$DIMFRAC
 70
     0
  9
$DIMLDRBLK
  1

  9
$DIMLUNIT
 70
     2
  9
$DIMLWD
 70
     0
  9
$DIMLWE
 70
     0
  9
$DIMTMOVE
 70
     0
  9
$LUNITS
 70
     2
  9
$LUPREC
 70
     4
  9
$SKETCHINC
 40
0.1
  9
$FILLETRAD
 40
0.0
  9
$AUNITS
 70
     0
  9
$AUPREC
 70
     0
  9
$MENU
  1
acad
  9
$ELEVATION
 40
0.0
  9
$PELEVATION
 40
0.0
  9
$THICKNESS
 40
0.0
  9
$LIMCHECK
 70
     0
  9
$CHAMFERA
 40
0.0
  9
$CHAMFERB
 40
0.0
  9
$CHAMFERC
 40
0.0
  9
$CHAMFERD
 40
0.0
  9
$SKPOLY
 70
     0
  9
$TDCREATE
 40
0.000000000
  9
$TDUCREATE
 40
0.000000000
  9
$TDUPDATE
 40
0.000000000
  9
$TDUUPDATE
 40
0.000000000
  9
$TDINDWG
 40
0.0000000000
  9
$TDUSRTIMER
 40
0.0000000000
  9
$USRTIMER
 70
     1
  9
$ANGBASE
 50
0.0
  9
$ANGDIR
 70
     0
  9
$PDMODE
 70
     0
  9
$PDSIZE
 40
0.0
  9
$PLINEWID
 40
0.0
  9
$SPLFRAME
 70
     0
  9
$SPLINETYPE
 70
     6
  9
$SPLINESEGS
 70
     8
  9
$HANDSEED
  5
180
  9
$SURFTAB1
 70
     6
  9
$SURFTAB2
 70
     6
  9
$SURFTYPE
 70
     6
  9
$SURFU
 70
     6
  9
$SURFV
 70
     6
  9
$UCSBASE
  2

  9
$UCSNAME
  2

  9
$UCSORG
 10
0.0
 20
0.0
 30
0.0
  9
$UCSXDIR
 10
1.0
 20
0.0
 30
0.0
  9
$UCSYDIR
 10
0.0
 20
1.0
 30
0.0
  9
$UCSORTHOREF
  2

  9
$UCSORTHOVIEW
 70
     0
  9
$UCSORGTOP
 10
0.0
 20
0.0
 30
0.0
  9
$UCSORGBOTTOM
 10
0.0
 20
0.0
 30
0.0
  9
$UCSORGLEFT
 10
0.0
 20
0.0
 30
0.0
  9
$UCSORGRIGHT
 10
0.0
 20
0.0
 30
0.0
  9
$UCSORGFRONT
 10
0.0
 20
0.0
 30
0.0
  9
$UCSORGBACK
 10
0.0
 20
0.0
 30
0.0
  9
$PUCSBASE
  2

  9
$PUCSNAME
  2

  9
$PUCSORG
 10
0.0
 20
0.0
 30
0.0
  9
$PUCSXDIR
 10
1.0
 20
0.0
 30
0.0
  9
$PUCSYDIR
 10
0.0
 20
1.0
 30
0.0
  9
$PUCSORTHOREF
  2

  9
$PUCSORTHOVIEW
 70
     0
  9
$PUCSORGTOP
 10
0.0
 20
0.0
 30
0.0
  9
$PUCSORGBOTTOM
 10
0.0
 20
0.0
 30
0.0
  9
$PUCSORGLEFT
 10
0.0
 20
0.0
 30
0.0
  9
$PUCSORGRIGHT
 10
0.0
 20
0.0
 30
0.0
  9
$PUCSORGFRONT
 10
0.0
 20
0.0
 30
0.0
  9
$PUCSORGBACK
 10
0.0
 20
0.0
 30
0.0
  9
$USERI1
 70
     0
  9
$USERI2
 70
     0
  9
$USERI3
 70
     0
  9
$USERI4
 70
     0
  9
$USERI5
 70
     0
  9
$USERR1
 40
0.0
  9
$USERR2
 40
0.0
  9
$USERR3
 40
0.0
  9
$USERR4
 40
0.0
  9
$USERR5
 40
0.0
  9
$WORLDVIEW
 70
     1
  9
$SHADEDGE
 70
     3
  9
$SHADEDIF
 70
    70
  9
$TILEMODE
 70
     1
  9
$MAXACTVP
 70
    16
  9
$PINSBASE
 10
0.0
 20
0.0
 30
0.0
  9
$PLIMCHECK
 70
     0
  9
$PEXTMIN
 10
1.000000E+20
 20
1.000000E+20
 30
1.000000E+20
  9
$PEXTMAX
 10
-1.000000E+20
 20
-1.000000E+20
 30
-1.000000E+20
  9
$PLIMMIN
 10
0.0
 20
0.0
  9
$PLIMMAX
 10
12.0
 20
9.0
  9
$UNITMODE
 70
     0
  9
$VISRETAIN
 70
     0
  9
$PLINEGEN
 70
     1
  9
$PSLTSCALE
 70
     0
  9
$TREEDEPTH
 70
  3020
  9
$CMLSTYLE
  2
Standard
  9
$CMLJUST
 70
     0
  9
$CMLSCALE
 40
1.0
  9
$PROXYGRAPHICS
 70
     0
  9
$MEASUREMENT
 70
     0
  9
$CELWEIGHT
370
     0
  9
$ENDCAPS
280
     0
  9
$JOINSTYLE
280
     0
  9
$LWDISPLAY
290
     0
  9
$INSUNITS
 70
     0
  9
$HYPERLINKBASE
  1

  9
$XEDIT
290
     1
  9
$CEPSNTYPE
380
     0
  9
$PSTYLEMODE
290
     1
  9
$FINGERPRINTGUID
  2

  9
$VERSIONGUID
  2

  9
$EXTNAMES
290
     1
  9
$PSVPSCALE
 40
0.0
  0
ENDSEC
  0
SECTION
  2
CLASSES
  0
CLASS
  1
LWPOLYLINE
  2
AcDbPolyline
  3
"AutoCAD"
 90
        0
280
     0
281
     1
  0
CLASS
  1
IMAGE
  2
AcDbRasterImage
  3
ISM
 90
      127
280
     0
281
     1
  0
CLASS
  1
OLE2FRAME
  2
AcDbOle2Frame
  3
""
 90
        0
280
     0
281
     1
  0
CLASS
  1
HATCH
  2
AcDbHatch
  3
"ACAD_SEDONA"
 90
        0
280
     0
281
     1
  0
CLASS
  1
DICTIONARYVAR
  2
AcDbDictionaryVar
  3
"AutoCAD"
 90
        0
280
     0
281
     0
  0
CLASS
  1
RASTERVARIABLES
  2
AcDbRasterVariables
  3
ISM
 90
        0
280
     0
281
     0
  0
CLASS
  1
IMAGEDEF
  2
AcDbRasterImageDef
  3
ISM
 90
        0
280
     0
281
     0
  0
CLASS
  1
IMAGEDEF_REACTOR
  2
AcDbRasterImageDefReactor
  3
ISM
 90
        1
280
     0
281
     0
  0
CLASS
  1
IDBUFFER
  2
AcDbIdBuffer
  3
"Acad"
 90
        0
280
     0
281
     0
  0
CLASS
  1
SPATIAL_FILTER
  2
AcDbSpatialFilter
  3
"Acad"
 90
        0
280
     0
281
     0
  0
CLASS
  1
XRECORD
  2
AcDbXrecord
  3
"<Built In>"
 90
        0
280
     0
281
     0
  0
CLASS
  1
SORTENTSTABLE
  2
AcDbSortentsTable
  3
"AutoCAD"
 90
        0
280
     0
281
     0
  0
CLASS
  1
LAYER_INDEX
  2
AcDbLayerIndex
  3
"Acad"
 90
        0
280
     0
281
     0
  0
CLASS
  1
SPATIAL_INDEX
  2
AcDbSpatialIndex
  3
"Acad"
 90
        0
280
     0
281
     0
  0
CLASS
  1
OBJECT_PTR
  2
CAseDLPNTableRecord
  3
"ASE-LPNTableRecord"
 90
        1
280
     0
281
     0
  0
CLASS
  1
LAYOUT
  2
AcDbLayout
  3
"AutoCAD 2000"
 90
        1
280
     0
281
     0
  0
CLASS
  1
PLOTSETTINGS
  2
AcDbPlotSettings
  3
"AutoCAD 2000"
 90
        1
280
     0
281
     0
  0
CLASS
  1
ACDBDICTIONARYWDFLT
  2
AcDbDictionaryWithDefault
  3
"AutoCAD 2000"
 90
        1
280
     0
281
     0
  0
CLASS
  1
ACDBPLACEHOLDER
  2
AcDbPlaceHolder
  3
"AutoCAD 2000"
 90
        1
280
     0
281
     0
  0
CLASS
  1
VBA_PROJECT
  2
AcDbVbaProject
  3
"acadvba"
 90
        1
280
     0
281
     0
  0
CLASS
  1
WIPEOUT
  2
AcDbWipeout
  3
WipeOut|AutoCAD Express Tool|expresstools@autodesk.com
 90
      127
280
     0
281
     1
  0
CLASS
  1
WIPEOUTVARIABLES
  2
AcDbWipeoutVariables
  3
WipeOut|AutoCAD Express Tool|expresstools@autodesk.com
 90
        0
280
     0
281
     0
  0
CLASS
  1
RTEXT
  2
RText
  3
RText|AutoCAD Express Tool|expresstools@autodesk.com
 90
        0
280
     0
281
     1
  0
CLASS
  1
ARCALIGNEDTEXT
  2
AcDbArcAlignedText
  3
ATEXT|AutoCAD Express Tool|expresstools@autodesk.com
 90
        0
280
     0
281
     1
  0
ENDSEC
  0
SECTION
  2
TABLES
  0
TABLE
  2
VPORT
  5
7
100
AcDbSymbolTable
 70
     1
  0
VPORT
  5
15
100
AcDbSymbolTableRecord
100
AcDbViewportTableRecord
  2
*ACTIVE
 70
     0
 10
0.0
 20
0.0
 11
1.0
 21
1.0
 12
6.591288
 22
4.579184
 13
0.0
 23
0.0
 14
1.0
 24
1.0
 15
0.0
 25
0.0
 16
0.0
 26
0.0
 36
1.0
 17
0.0
 27
0.0
 37
0.0
 40
9.158369
 41
0.688564
 42
50.0
 43
0.0
 44
0.0
 50
0.0
 51
0.0
 71
     0
 72
   100
 73
     1
 74
     1
 75
     0
 76
     0
 77
     0
 78
     0
281
     0
 65
     0
110
0.0
120
0.0
130
0.0
111
1.0
121
0.0
131
0.0
112
0.0
122
1.0
132
0.0
345
0
346
0
 79
     0
146
0.0
  0
ENDTAB
  0
TABLE
  2
LTYPE
  5
4
100
AcDbSymbolTable
 70
     3
  0
LTYPE
  5
11
100
AcDbSymbolTableRecord
100
AcDbLinetypeTableRecord
  2
ByBlock
 70
    64
  3

 72
    65
 73
     0
 40
0.0
  0
LTYPE
  5
12
100
AcDbSymbolTableRecord
100
AcDbLinetypeTableRecord
  2
ByLayer
 70
    64
  3

 72
    65
 73
     0
 40
0.0
  0
LTYPE
  5
13
100
AcDbSymbolTableRecord
100
AcDbLinetypeTableRecord
  2
Continuous
 70
    64
  3
Solid line
 72
    65
 73
     0
 40
0.0
  0
ENDTAB
  0
TABLE
  2
LAYER
  5
2
100
AcDbSymbolTable
 70
     2
  0
LAYER
  5
14
100
AcDbSymbolTableRecord
100
AcDbLayerTableRecord
  2
0
 70
     0
 62
     7
  6
Continuous
290
     1
370
    -3
390
1D
  0
LAYER
  5
28
100
AcDbSymbolTableRecord
100
AcDbLayerTableRecord
  2
EBENE_1
 70
     0
 62
   160
  6
Continuous
290
     1
370
    -3
390
1F
  0
ENDTAB
  0
TABLE
  2
STYLE
  5
3
100
AcDbSymbolTable
 70
     5
  0
STYLE
  5
17
100
AcDbSymbolTableRecord
100
AcDbTextStyleTableRecord
  2
Standard
 70
     0
 40
0.0
 41
1.0
 50
0.0
 71
     0
 42
0.0
  3
txt
  4

  0
STYLE
  5
24
100
AcDbSymbolTableRecord
100
AcDbTextStyleTableRecord
  2
STD
 70
     0
 40
0.0
 41
1.0
 50
0.0
 71
     0
 42
0.0
  3
txt
  4

  0
STYLE
  5
25
100
AcDbSymbolTableRecord
100
AcDbTextStyleTableRecord
  2
TATESTD
 70
     4
 40
0.0
 41
1.0
 50
0.0
 71
     0
 42
0.0
  3
txt
  4

  0
STYLE
  5
26
100
AcDbSymbolTableRecord
100
AcDbTextStyleTableRecord
  2
KANJISTD
 70
     0
 40
0.0
 41
1.0
 50
0.0
 71
     0
 42
0.0
  3
txt
  4
extfont
  0
STYLE
  5
27
100
AcDbSymbolTableRecord
100
AcDbTextStyleTableRecord
  2
KANJITATE
 70
     4
 40
0.0
 41
1.0
 50
0.0
 71
     0
 42
0.0
  3
txt
  4
extfont
  0
ENDTAB
  0
TABLE
  2
VIEW
  5
5
100
AcDbSymbolTable
 70
     0
  0
ENDTAB
  0
TABLE
  2
UCS
  5
6
100
AcDbSymbolTable
 70
     0
  0
ENDTAB
  0
TABLE
  2
APPID
  5
8
100
AcDbSymbolTable
 70
     1
  0
APPID
  5
16
100
AcDbSymbolTableRecord
100
AcDbRegAppTableRecord
  2
ACAD
 70
     0
  0
ENDTAB
  0
TABLE
  2
DIMSTYLE
  5
9
100
AcDbSymbolTable
 70
     1
100
AcDbDimStyleTable
 71
     0
  0
DIMSTYLE
105
18
100
AcDbSymbolTableRecord
100
AcDbDimStyleTableRecord
  2
Standard
 70
     0
  3

  4

 40
1.0
 41
0.18
 42
0.0625
 43
0.38
 44
0.18
 45
0.0
 46
0.0
 47
0.0
 48
0.0
 71
     0
 72
     0
 73
     1
 74
     1
 75
     0
 76
     0
 77
     0
 78
     0
 79
     0
140
0.18
141
0.09
142
0.0
143
25.4
144
1.0
145
0.0
146
1.0
147
0.09
148
0.0
170
     0
171
     2
172
     0
173
     0
174
     0
175
     0
176
     0
177
     0
178
     0
179
     0
271
     4
272
     4
273
     2
274
     2
275
     0
276
     0
277
     2
278
    46
279
     0
280
     0
281
     0
282
     0
283
     1
284
     0
285
     0
286
     0
288
     0
340
17
341
0
342
0
343
0
344
0
371
    -2
372
    -2
  0
ENDTAB
  0
TABLE
  2
BLOCK_RECORD
  5
1
100
AcDbSymbolTable
 70
     0
  0
BLOCK_RECORD
  5
A
100
AcDbSymbolTableRecord
100
AcDbBlockTableRecord
  2
*MODEL_SPACE
340
20
  0
BLOCK_RECORD
  5
B
100
AcDbSymbolTableRecord
100
AcDbBlockTableRecord
  2
*PAPER_SPACE
340
21
  0
ENDTAB
  0
ENDSEC
  0
SECTION
  2
BLOCKS
  0
BLOCK
  5
D
100
AcDbEntity
  8
0
100
AcDbBlockBegin
  2
*MODEL_SPACE
 70
     0
 10
0.0
 20
0.0
 30
0.0
  3
*MODEL_SPACE
  1

  0
ENDBLK
  5
E
100
AcDbEntity
  8
0
100
AcDbBlockEnd
  0
BLOCK
  5
F
100
AcDbEntity
 67
     1
  8
0
100
AcDbBlockBegin
  2
*PAPER_SPACE
 70
     0
 10
0.0
 20
0.0
 30
0.0
  3
*PAPER_SPACE
  1

  0
ENDBLK
  5
10
100
AcDbEntity
 67
     1
  8
0
100
AcDbBlockEnd
  0
ENDSEC
  0
SECTION
  2
ENTITIES
  0
LINE
  5
17F
100
AcDbEntity
  8
EBENE_1
 62
   250
100
AcDbLine
 10
119.409077
 20
150.77357
 30
0.0
 11
119.409077
 21
162.773527
 31
0.0
  0
SPLINE
  5
17E
100
AcDbEntity
  8
EBENE_1
 62
   250
100
AcDbSpline
210
0.0
220
0.0
230
1.0
 70
     8
 71
     3
 72
     8
 73
     4
 74
     0
 42
0.00000001
 43
0.00000001
 40
0.0
 40
0.0
 40
0.0
 40
0.0
 40
1.0
 40
1.0
 40
1.0
 40
1.0
 10
119.90861545138888
 20
150.77322591145833
 30
0.0
 10
120.10429687499999
 20
154.78021647135415
 30
0.0
 10
119.93755425347221
 20
158.7966810438368
 30
0.0
 10
119.40838758680555
 20
162.77335476345485
 30
0.0
  0
SPLINE
  5
17D
100
AcDbEntity
  8
EBENE_1
 62
   250
100
AcDbSpline
210
0.0
220
0.0
230
1.0
 70
     8
 71
     3
 72
     8
 73
     4
 74
     0
 42
0.00000001
 43
0.00000001
 40
0.0
 40
0.0
 40
0.0
 40
0.0
 40
1.0
 40
1.0
 40
1.0
 40
1.0
 10
120.90838216145832
 20
150.77322591145833
 30
0.0
 10
121.10475260416665
 20
154.78021647135415
 30
0.0
 10
120.93732096354165
 20
158.7966810438368
 30
0.0
 10
120.40815429687498
 20
162.77335476345485
 30
0.0
  0
SPLINE
  5
17C
100
AcDbEntity
  8
EBENE_1
 62
   250
100
AcDbSpline
210
0.0
220
0.0
230
1.0
 70
     8
 71
     3
 72
     8
 73
     4
 74
     0
 42
0.00000001
 43
0.00000001
 40
0.0
 40
0.0
 40
0.0
 40
0.0
 40
1.0
 40
1.0
 40
1.0
 40
1.0
 10
121.90814887152777
 20
150.77322591145833
 30
0.0
 10
122.1045193142361
 20
154.78021647135415
 30
0.0
 10
121.9370876736111
 20
158.7966810438368
 30
0.0
 10
121.40861002604166
 20
162.77335476345485
 30
0.0
  0
SPLINE
  5
17B
100
AcDbEntity
  8
EBENE_1
 62
   250
100
AcDbSpline
210
0.0
220
0.0
230
1.0
 70
     8
 71
     3
 72
     8
 73
     4
 74
     0
 42
0.00000001
 43
0.00000001
 40
0.0
 40
0.0
 40
0.0
 40
0.0
 40
1.0
 40
1.0
 40
1.0
 40
1.0
 10
122.90860460069443
 20
150.77322591145833
 30
0.0
 10
123.10428602430555
 20
154.78021647135415
 30
0.0
 10
122.93754340277776
 20
158.7966810438368
 30
0.0
 10
122.40837673611109
 20
162.77335476345485
 30
0.0
  0
SPLINE
  5
17A
100
AcDbEntity
  8
EBENE_1
 62
   250
100
AcDbSpline
210
0.0
220
0.0
230
1.0
 70
     8
 71
     3
 72
     8
 73
     4
 74
     0
 42
0.00000001
 43
0.00000001
 40
0.0
 40
0.0
 40
0.0
 40
0.0
 40
1.0
 40
1.0
 40
1.0
 40
1.0
 10
123.90837131076388
 20
150.77322591145833
 30
0.0
 10
124.10474175347221
 20
154.78021647135415
 30
0.0
 10
123.93731011284721
 20
158.7966810438368
 30
0.0
 10
123.40814344618055
 20
162.77335476345485
 30
0.0
  0
SPLINE
  5
179
100
AcDbEntity
  8
EBENE_1
 62
   250
100
AcDbSpline
210
0.0
220
0.0
230
1.0
 70
     8
 71
     3
 72
     8
 73
     4
 74
     0
 42
0.00000001
 43
0.00000001
 40
0.0
 40
0.0
 40
0.0
 40
0.0
 40
1.0
 40
1.0
 40
1.0
 40
1.0
 10
124.90813802083332
 20
150.77322591145833
 30
0.0
 10
125.10450846354165
 20
154.78021647135415
 30
0.0
 10
124.93707682291665
 20
158.7966810438368
 30
0.0
 10
124.40859917534721
 20
162.77335476345485
 30
0.0
  0
SPLINE
  5
178
100
AcDbEntity
  8
EBENE_1
 62
   250
100
AcDbSpline
210
0.0
220
0.0
230
1.0
 70
     8
 71
     3
 72
     8
 73
     4
 74
     0
 42
0.00000001
 43
0.00000001
 40
0.0
 40
0.0
 40
0.0
 40
0.0
 40
1.0
 40
1.0
 40
1.0
 40
1.0
 10
125.90859374999999
 20
150.77322591145833
 30
0.0
 10
126.10496419270832
 20
154.78021647135415
 30
0.0
 10
125.93753255208333
 20
158.7966810438368
 30
0.0
 10
125.40836588541666
 20
162.77335476345485
 30
0.0
  0
SPLINE
  5
177
100
AcDbEntity
  8
EBENE_1
 62
   250
100
AcDbSpline
210
0.0
220
0.0
230
1.0
 70
     8
 71
     3
 72
     8
 73
     4
 74
     0
 42
0.00000001
 43
0.00000001
 40
0.0
 40
0.0
 40
0.0
 40
0.0
 40
1.0
 40
1.0
 40
1.0
 40
1.0
 10
126.90836046006943
 20
150.77322591145833
 30
0.0
 10
127.10473090277776
 20
154.78021647135415
 30
0.0
 10
126.93729926215276
 20
158.7966810438368
 30
0.0
 10
126.40813259548609
 20
162.77335476345485
 30
0.0
  0
SPLINE
  5
176
100
AcDbEntity
  8
EBENE_1
 62
   250
100
AcDbSpline
210
0.0
220
0.0
230
1.0
 70
     8
 71
     3
 72
     8
 73
     4
 74
     0
 42
0.00000001
 43
0.00000001
 40
0.0
 40
0.0
 40
0.0
 40
0.0
 40
1.0
 40
1.0
 40
1.0
 40
1.0
 10
127.90812717013888
 20
150.77322591145833
 30
0.0
 10
128.10449761284721
 20
154.78021647135415
 30
0.0
 10
127.93706597222221
 20
158.7966810438368
 30
0.0
 10
127.40858832465277
 20
162.77335476345485
 30
0.0
  0
SPLINE
  5
175
100
AcDbEntity
  8
EBENE_1
 62
   250
100
AcDbSpline
210
0.0
220
0.0
230
1.0
 70
     8
 71
     3
 72
     8
 73
     4
 74
     0
 42
0.00000001
 43
0.00000001
 40
0.0
 40
0.0
 40
0.0
 40
0.0
 40
1.0
 40
1.0
 40
1.0
 40
1.0
 10
129.90834960937499
 20
150.77425944010415
 30
0.0
 10
129.97242838541666
 20
154.78090549045137
 30
0.0
 10
129.80568576388887
 20
158.7877237955729
 30
0.0
 10
129.40812174479166
 20
162.77490505642359
 30
0.0
  0
SPLINE
  5
174
100
AcDbEntity
  8
EBENE_1
 62
   250
100
AcDbSpline
210
0.0
220
0.0
230
1.0
 70
     8
 71
     3
 72
     8
 73
     4
 74
     0
 42
0.00000001
 43
0.00000001
 40
0.0
 40
0.0
 40
0.0
 40
0.0
 40
1.0
 40
1.0
 40
1.0
 40
1.0
 10
128.90858289930554
 20
150.77322591145833
 30
0.0
 10
129.10495334201389
 20
154.78021647135415
 30
0.0
 10
128.93752170138887
 20
158.7966810438368
 30
0.0
 10
128.40835503472221
 20
162.77335476345485
 30
0.0
  0
POLYLINE
  5
16B
100
AcDbEntity
  8
EBENE_1
 62
   250
100
AcDb2dPolyline
 66
     1
 10
0.0
 20
0.0
 30
0.0
 70
     1
  0
VERTEX
  5
16C
100
AcDbEntity
  8
EBENE_1
 62
   250
100
AcDbVertex
100
AcDb2dVertex
 10
118.908849
 20
151.273454
 30
0.0
  0
VERTEX
  5
16D
100
AcDbEntity
  8
EBENE_1
 62
   250
100
AcDbVertex
100
AcDb2dVertex
 10
118.908849
 20
162.273471
 30
0.0
  0
VERTEX
  5
16E
100
AcDbEntity
  8
EBENE_1
 62
   250
100
AcDbVertex
100
AcDb2dVertex
 10
119.409077
 20
162.773527
 30
0.0
  0
VERTEX
  5
16F
100
AcDbEntity
  8
EBENE_1
 62
   250
100
AcDbVertex
100
AcDb2dVertex
 10
129.909039
 20
162.773527
 30
0.0
  0
VERTEX
  5
170
100
AcDbEntity
  8
EBENE_1
 62
   250
100
AcDbVertex
100
AcDb2dVertex
 10
129.909039
 20
150.77357
 30
0.0
  0
VERTEX
  5
171
100
AcDbEntity
  8
EBENE_1
 62
   250
100
AcDbVertex
100
AcDb2dVertex
 10
119.409077
 20
150.77357
 30
0.0
  0
VERTEX
  5
172
100
AcDbEntity
  8
EBENE_1
 62
   250
100
AcDbVertex
100
AcDb2dVertex
 10
118.908849
 20
151.273454
 30
0.0
  0
SEQEND
  5
173
100
AcDbEntity
  8
EBENE_1
 62
   250
  0
LINE
  5
16A
100
AcDbEntity
  8
EBENE_1
 62
   250
100
AcDbLine
 10
129.909039
 20
147.773237
 30
0.0
 11
132.909028
 21
147.773237
 31
0.0
  0
POLYLINE
  5
164
100
AcDbEntity
  8
EBENE_1
 62
   250
100
AcDb2dPolyline
 66
     1
 10
0.0
 20
0.0
 30
0.0
 70
     1
  0
VERTEX
  5
165
100
AcDbEntity
  8
EBENE_1
 62
   250
100
AcDbVertex
100
AcDb2dVertex
 10
129.909039
 20
146.61913
 30
0.0
  0
VERTEX
  5
166
100
AcDbEntity
  8
EBENE_1
 62
   250
100
AcDbVertex
100
AcDb2dVertex
 10
132.909028
 20
146.61913
 30
0.0
  0
VERTEX
  5
167
100
AcDbEntity
  8
EBENE_1
 62
   250
100
AcDbVertex
100
AcDb2dVertex
 10
132.909028
 20
166.619459
 30
0.0
  0
VERTEX
  5
168
100
AcDbEntity
  8
EBENE_1
 62
   250
100
AcDbVertex
100
AcDb2dVertex
 10
129.909039
 20
166.619459
 30
0.0
  0
SEQEND
  5
169
100
AcDbEntity
  8
EBENE_1
 62
   250
  0
LINE
  5
163
100
AcDbEntity
  8
EBENE_1
 62
   250
100
AcDbLine
 10
129.909039
 20
155.273554
 30
0.0
 11
132.909028
 21
155.273554
 31
0.0
  0
LINE
  5
162
100
AcDbEntity
  8
EBENE_1
 62
   250
100
AcDbLine
 10
132.909028
 20
158.273371
 30
0.0
 11
129.909039
 21
158.273371
 31
0.0
  0
LINE
  5
161
100
AcDbEntity
  8
EBENE_1
 62
   250
100
AcDbLine
 10
129.909039
 20
165.773516
 30
0.0
 11
132.909028
 21
165.773516
 31
0.0
  0
LINE
  5
160
100
AcDbEntity
  8
EBENE_1
 62
   250
100
AcDbLine
 10
125.567529
 20
165.61952
 30
0.0
 11
125.350488
 21
179.39439
 31
0.0
  0
LINE
  5
15F
100
AcDbEntity
  8
EBENE_1
 62
   250
100
AcDbLine
 10
128.06798
 20
164.619409
 30
0.0
 11
127.785482
 21
180.591389
 31
0.0
  0
LINE
  5
15E
100
AcDbEntity
  8
EBENE_1
 62
   250
100
AcDbLine
 10
127.567752
 20
164.619409
 30
0.0
 11
127.285943
 21
180.591389
 31
0.0
  0
LINE
  5
15D
100
AcDbEntity
  8
EBENE_1
 62
   250
100
AcDbLine
 10
129.067746
 20
164.619409
 30
0.0
 11
128.785937
 21
180.591389
 31
0.0
  0
LINE
  5
15C
100
AcDbEntity
  8
EBENE_1
 62
   250
100
AcDbLine
 10
128.567518
 20
164.619409
 30
0.0
 11
128.28571
 21
180.591389
 31
0.0
  0
LINE
  5
15B
100
AcDbEntity
  8
EBENE_1
 62
   250
100
AcDbLine
 10
127.067524
 20
164.619409
 30
0.0
 11
126.785715
 21
180.591389
 31
0.0
  0
LINE
  5
15A
100
AcDbEntity
  8
EBENE_1
 62
   250
100
AcDbLine
 10
126.567985
 20
164.619409
 30
0.0
 11
126.285487
 21
180.591389
 31
0.0
  0
LINE
  5
159
100
AcDbEntity
  8
EBENE_1
 62
   250
100
AcDbLine
 10
126.067757
 20
164.619409
 30
0.0
 11
125.785948
 21
180.591389
 31
0.0
  0
POLYLINE
  5
145
100
AcDbEntity
  8
EBENE_1
 62
   250
100
AcDb2dPolyline
 66
     1
 10
0.0
 20
0.0
 30
0.0
  0
VERTEX
  5
146
100
AcDbEntity
  8
EBENE_1
 62
   250
100
AcDbVertex
100
AcDb2dVertex
 10
133.210129
 20
164.619409
 30
0.0
  0
VERTEX
  5
147
100
AcDbEntity
  8
EBENE_1
 62
   250
100
AcDbVertex
100
AcDb2dVertex
 10
133.168099
 20
164.619409
 30
0.0
  0
VERTEX
  5
148
100
AcDbEntity
  8
EBENE_1
 62
   250
100
AcDbVertex
100
AcDb2dVertex
 10
133.168099
 20
162.619359
 30
0.0
  0
VERTEX
  5
149
100
AcDbEntity
  8
EBENE_1
 62
   250
100
AcDbVertex
100
AcDb2dVertex
 10
130.16811
 20
162.619359
 30
0.0
  0
VERTEX
  5
14A
100
AcDbEntity
  8
EBENE_1
 62
   250
100
AcDbVertex
100
AcDb2dVertex
 10
130.16811
 20
164.619409
 30
0.0
  0
VERTEX
  5
14B
100
AcDbEntity
  8
EBENE_1
 62
   250
100
AcDbVertex
100
AcDb2dVertex
 10
126.067757
 20
164.619409
 30
0.0
  0
VERTEX
  5
14C
100
AcDbEntity
  8
EBENE_1
 62
   250
100
AcDbVertex
100
AcDb2dVertex
 10
125.567529
 20
165.61952
 30
0.0
  0
VERTEX
  5
14D
100
AcDbEntity
  8
EBENE_1
 62
   250
100
AcDbVertex
100
AcDb2dVertex
 10
125.567529
 20
165.769382
 30
0.0
  0
VERTEX
  5
14E
100
AcDbEntity
  8
EBENE_1
 62
   250
100
AcDbVertex
100
AcDb2dVertex
 10
121.067546
 20
165.769382
 30
0.0
  0
VERTEX
  5
14F
100
AcDbEntity
  8
EBENE_1
 62
   250
100
AcDbVertex
100
AcDb2dVertex
 10
121.067546
 20
179.369413
 30
0.0
  0
VERTEX
  5
150
100
AcDbEntity
  8
EBENE_1
 62
   250
100
AcDbVertex
100
AcDb2dVertex
 10
125.567529
 20
179.369413
 30
0.0
  0
VERTEX
  5
151
100
AcDbEntity
  8
EBENE_1
 62
   250
100
AcDbVertex
100
AcDb2dVertex
 10
125.567529
 20
179.519447
 30
0.0
  0
VERTEX
  5
152
100
AcDbEntity
  8
EBENE_1
 62
   250
100
AcDbVertex
100
AcDb2dVertex
 10
125.785948
 20
180.591389
 30
0.0
  0
VERTEX
  5
153
100
AcDbEntity
  8
EBENE_1
 62
   250
100
AcDbVertex
100
AcDb2dVertex
 10
130.16811
 20
180.619466
 30
0.0
  0
VERTEX
  5
154
100
AcDbEntity
  8
EBENE_1
 62
   250
100
AcDbVertex
100
AcDb2dVertex
 10
130.16811
 20
182.619516
 30
0.0
  0
VERTEX
  5
155
100
AcDbEntity
  8
EBENE_1
 62
   250
100
AcDbVertex
100
AcDb2dVertex
 10
133.168099
 20
182.619516
 30
0.0
  0
VERTEX
  5
156
100
AcDbEntity
  8
EBENE_1
 62
   250
100
AcDbVertex
100
AcDb2dVertex
 10
133.168099
 20
180.619466
 30
0.0
  0
VERTEX
  5
157
100
AcDbEntity
  8
EBENE_1
 62
   250
100
AcDbVertex
100
AcDb2dVertex
 10
133.205995
 20
180.619466
 30
0.0
  0
SEQEND
  5
158
100
AcDbEntity
  8
EBENE_1
 62
   250
  0
LINE
  5
144
100
AcDbEntity
  8
EBENE_1
 62
   250
100
AcDbLine
 10
129.567974
 20
164.619409
 30
0.0
 11
129.286165
 21
180.591389
 31
0.0
  0
LINE
  5
143
100
AcDbEntity
  8
EBENE_1
 62
   250
100
AcDbLine
 10
130.067513
 20
164.619409
 30
0.0
 11
129.785704
 21
180.591389
 31
0.0
  0
LINE
  5
142
100
AcDbEntity
  8
EBENE_1
 62
   250
100
AcDbLine
 10
133.067502
 20
185.11945
 30
0.0
 11
130.567741
 21
185.11945
 31
0.0
  0
POLYLINE
  5
137
100
AcDbEntity
  8
EBENE_1
 62
   250
100
AcDb2dPolyline
 66
     1
 10
0.0
 20
0.0
 30
0.0
 70
     1
  0
VERTEX
  5
138
100
AcDbEntity
  8
EBENE_1
 62
   250
100
AcDbVertex
100
AcDb2dVertex
 10
130.16811
 20
173.119493
 30
0.0
  0
VERTEX
  5
139
100
AcDbEntity
  8
EBENE_1
 62
   250
100
AcDbVertex
100
AcDb2dVertex
 10
130.16811
 20
182.619516
 30
0.0
  0
VERTEX
  5
13A
100
AcDbEntity
  8
EBENE_1
 62
   250
100
AcDbVertex
100
AcDb2dVertex
 10
133.168099
 20
182.619516
 30
0.0
  0
VERTEX
  5
13B
100
AcDbEntity
  8
EBENE_1
 62
   250
100
AcDbVertex
100
AcDb2dVertex
 10
133.168099
 20
162.619359
 30
0.0
  0
VERTEX
  5
13C
100
AcDbEntity
  8
EBENE_1
 62
   250
100
AcDbVertex
100
AcDb2dVertex
 10
130.16811
 20
162.619359
 30
0.0
  0
VERTEX
  5
13D
100
AcDbEntity
  8
EBENE_1
 62
   250
100
AcDbVertex
100
AcDb2dVertex
 10
130.16811
 20
172.119382
 30
0.0
  0
VERTEX
  5
13E
100
AcDbEntity
  8
EBENE_1
 62
   250
100
AcDbVertex
100
AcDb2dVertex
 10
131.067969
 20
172.119382
 30
0.0
  0
VERTEX
  5
13F
100
AcDbEntity
  8
EBENE_1
 62
   250
100
AcDbVertex
100
AcDb2dVertex
 10
131.067969
 20
173.119493
 30
0.0
  0
VERTEX
  5
140
100
AcDbEntity
  8
EBENE_1
 62
   250
100
AcDbVertex
100
AcDb2dVertex
 10
130.16811
 20
173.119493
 30
0.0
  0
SEQEND
  5
141
100
AcDbEntity
  8
EBENE_1
 62
   250
  0
LINE
  5
136
100
AcDbEntity
  8
EBENE_1
 62
   250
100
AcDbLine
 10
125.06799
 20
181.619405
 30
0.0
 11
125.06799
 21
188.619495
 31
0.0
  0
LINE
  5
135
100
AcDbEntity
  8
EBENE_1
 62
   250
100
AcDbLine
 10
125.567529
 20
189.119378
 30
0.0
 11
125.567529
 21
181.11935
 31
0.0
  0
LINE
  5
134
100
AcDbEntity
  8
EBENE_1
 62
   250
100
AcDbLine
 10
127.067524
 20
188.619495
 30
0.0
 11
127.067524
 21
181.619405
 31
0.0
  0
POLYLINE
  5
124
100
AcDbEntity
  8
EBENE_1
 62
   250
100
AcDb2dPolyline
 66
     1
 10
0.0
 20
0.0
 30
0.0
  0
VERTEX
  5
125
100
AcDbEntity
  8
EBENE_1
 62
   250
100
AcDbVertex
100
AcDb2dVertex
 10
130.567741
 20
181.11935
 30
0.0
  0
VERTEX
  5
126
100
AcDbEntity
  8
EBENE_1
 62
   250
100
AcDbVertex
100
AcDb2dVertex
 10
127.567752
 20
181.11935
 30
0.0
  0
VERTEX
  5
127
100
AcDbEntity
  8
EBENE_1
 62
   250
100
AcDbVertex
100
AcDb2dVertex
 10
127.067524
 20
181.619405
 30
0.0
  0
VERTEX
  5
128
100
AcDbEntity
  8
EBENE_1
 62
   250
100
AcDbVertex
100
AcDb2dVertex
 10
126.567985
 20
181.11935
 30
0.0
  0
VERTEX
  5
129
100
AcDbEntity
  8
EBENE_1
 62
   250
100
AcDbVertex
100
AcDb2dVertex
 10
125.567529
 20
181.11935
 30
0.0
  0
VERTEX
  5
12A
100
AcDbEntity
  8
EBENE_1
 62
   250
100
AcDbVertex
100
AcDb2dVertex
 10
125.06799
 20
181.619405
 30
0.0
  0
VERTEX
  5
12B
100
AcDbEntity
  8
EBENE_1
 62
   250
100
AcDbVertex
100
AcDb2dVertex
 10
124.067535
 20
181.619405
 30
0.0
  0
VERTEX
  5
12C
100
AcDbEntity
  8
EBENE_1
 62
   250
100
AcDbVertex
100
AcDb2dVertex
 10
124.067535
 20
188.619495
 30
0.0
  0
VERTEX
  5
12D
100
AcDbEntity
  8
EBENE_1
 62
   250
100
AcDbVertex
100
AcDb2dVertex
 10
125.06799
 20
188.619495
 30
0.0
  0
VERTEX
  5
12E
100
AcDbEntity
  8
EBENE_1
 62
   250
100
AcDbVertex
100
AcDb2dVertex
 10
125.567529
 20
189.119378
 30
0.0
  0
VERTEX
  5
12F
100
AcDbEntity
  8
EBENE_1
 62
   250
100
AcDbVertex
100
AcDb2dVertex
 10
126.567985
 20
189.119378
 30
0.0
  0
VERTEX
  5
130
100
AcDbEntity
  8
EBENE_1
 62
   250
100
AcDbVertex
100
AcDb2dVertex
 10
127.067524
 20
188.619495
 30
0.0
  0
VERTEX
  5
131
100
AcDbEntity
  8
EBENE_1
 62
   250
100
AcDbVertex
100
AcDb2dVertex
 10
127.567752
 20
189.119378
 30
0.0
  0
VERTEX
  5
132
100
AcDbEntity
  8
EBENE_1
 62
   250
100
AcDbVertex
100
AcDb2dVertex
 10
130.567741
 20
189.119378
 30
0.0
  0
SEQEND
  5
133
100
AcDbEntity
  8
EBENE_1
 62
   250
  0
LINE
  5
123
100
AcDbEntity
  8
EBENE_1
 62
   250
100
AcDbLine
 10
129.067746
 20
181.11935
 30
0.0
 11
129.067746
 21
189.119378
 31
0.0
  0
LINE
  5
122
100
AcDbEntity
  8
EBENE_1
 62
   250
100
AcDbLine
 10
129.567974
 20
181.11935
 30
0.0
 11
129.567974
 21
189.119378
 31
0.0
  0
LINE
  5
121
100
AcDbEntity
  8
EBENE_1
 62
   250
100
AcDbLine
 10
130.067513
 20
181.11935
 30
0.0
 11
130.067513
 21
189.119378
 31
0.0
  0
POLYLINE
  5
11B
100
AcDbEntity
  8
EBENE_1
 62
   250
100
AcDb2dPolyline
 66
     1
 10
0.0
 20
0.0
 30
0.0
 70
     1
  0
VERTEX
  5
11C
100
AcDbEntity
  8
EBENE_1
 62
   250
100
AcDbVertex
100
AcDb2dVertex
 10
130.567741
 20
180.119411
 30
0.0
  0
VERTEX
  5
11D
100
AcDbEntity
  8
EBENE_1
 62
   250
100
AcDbVertex
100
AcDb2dVertex
 10
133.067502
 20
180.119411
 30
0.0
  0
VERTEX
  5
11E
100
AcDbEntity
  8
EBENE_1
 62
   250
100
AcDbVertex
100
AcDb2dVertex
 10
133.067502
 20
190.119489
 30
0.0
  0
VERTEX
  5
11F
100
AcDbEntity
  8
EBENE_1
 62
   250
100
AcDbVertex
100
AcDb2dVertex
 10
130.567741
 20
190.119489
 30
0.0
  0
SEQEND
  5
120
100
AcDbEntity
  8
EBENE_1
 62
   250
  0
POLYLINE
  5
115
100
AcDbEntity
  8
EBENE_1
 62
   250
100
AcDb2dPolyline
 66
     1
 10
0.0
 20
0.0
 30
0.0
 70
     1
  0
VERTEX
  5
116
100
AcDbEntity
  8
EBENE_1
 62
   250
100
AcDbVertex
100
AcDb2dVertex
 10
15.568387
 20
116.11901
 30
0.0
  0
VERTEX
  5
117
100
AcDbEntity
  8
EBENE_1
 62
   250
100
AcDbVertex
100
AcDb2dVertex
 10
37.068538
 20
116.11901
 30
0.0
  0
VERTEX
  5
118
100
AcDbEntity
  8
EBENE_1
 62
   250
100
AcDbVertex
100
AcDb2dVertex
 10
37.068538
 20
124.119211
 30
0.0
  0
VERTEX
  5
119
100
AcDbEntity
  8
EBENE_1
 62
   250
100
AcDbVertex
100
AcDb2dVertex
 10
15.568387
 20
124.119211
 30
0.0
  0
SEQEND
  5
11A
100
AcDbEntity
  8
EBENE_1
 62
   250
  0
POLYLINE
  5
10F
100
AcDbEntity
  8
EBENE_1
 62
   250
100
AcDb2dPolyline
 66
     1
 10
0.0
 20
0.0
 30
0.0
 70
     1
  0
VERTEX
  5
110
100
AcDbEntity
  8
EBENE_1
 62
   250
100
AcDbVertex
100
AcDb2dVertex
 10
37.068538
 20
100.119298
 30
0.0
  0
VERTEX
  5
111
100
AcDbEntity
  8
EBENE_1
 62
   250
100
AcDbVertex
100
AcDb2dVertex
 10
39.5683
 20
100.119298
 30
0.0
  0
VERTEX
  5
112
100
AcDbEntity
  8
EBENE_1
 62
   250
100
AcDbVertex
100
AcDb2dVertex
 10
39.5683
 20
140.118924
 30
0.0
  0
VERTEX
  5
113
100
AcDbEntity
  8
EBENE_1
 62
   250
100
AcDbVertex
100
AcDb2dVertex
 10
37.068538
 20
140.118924
 30
0.0
  0
SEQEND
  5
114
100
AcDbEntity
  8
EBENE_1
 62
   250
  0
POLYLINE
  5
109
100
AcDbEntity
  8
EBENE_1
 62
   250
100
AcDb2dPolyline
 66
     1
 10
0.0
 20
0.0
 30
0.0
  0
VERTEX
  5
10A
100
AcDbEntity
  8
EBENE_1
 62
   250
100
AcDbVertex
100
AcDb2dVertex
 10
46.568389
 20
92.619325
 30
0.0
  0
VERTEX
  5
10B
100
AcDbEntity
  8
EBENE_1
 62
   250
100
AcDbVertex
100
AcDb2dVertex
 10
39.5683
 20
92.619325
 30
0.0
  0
VERTEX
  5
10C
100
AcDbEntity
  8
EBENE_1
 62
   250
100
AcDbVertex
100
AcDb2dVertex
 10
39.5683
 20
147.619586
 30
0.0
  0
VERTEX
  5
10D
100
AcDbEntity
  8
EBENE_1
 62
   250
100
AcDbVertex
100
AcDb2dVertex
 10
46.568389
 20
147.619586
 30
0.0
  0
SEQEND
  5
10E
100
AcDbEntity
  8
EBENE_1
 62
   250
  0
LINE
  5
108
100
AcDbEntity
  8
EBENE_1
 62
   250
100
AcDbLine
 10
46.568389
 20
92.619325
 30
0.0
 11
46.568389
 21
147.619586
 31
0.0
  0
LINE
  5
107
100
AcDbEntity
  8
EBENE_1
 62
   250
100
AcDbLine
 10
133.199794
 20
99.119531
 30
0.0
 11
91.567882
 21
99.119531
 31
0.0
  0
POLYLINE
  5
102
100
AcDbEntity
  8
EBENE_1
 62
   250
100
AcDb2dPolyline
 66
     1
 10
0.0
 20
0.0
 30
0.0
  0
VERTEX
  5
103
100
AcDbEntity
  8
EBENE_1
 62
   250
100
AcDbVertex
100
AcDb2dVertex
 10
46.568389
 20
101.619293
 30
0.0
  0
VERTEX
  5
104
100
AcDbEntity
  8
EBENE_1
 62
   250
100
AcDbVertex
100
AcDb2dVertex
 10
90.055485
 20
101.619293
 30
0.0
  0
VERTEX
  5
105
100
AcDbEntity
  8
EBENE_1
 62
   250
100
AcDbVertex
100
AcDb2dVertex
 10
93.954644
 20
95.119086
 30
0.0
  0
SEQEND
  5
106
100
AcDbEntity
  8
EBENE_1
 62
   250
  0
POLYLINE
  5
FD
100
AcDbEntity
  8
EBENE_1
 62
   250
100
AcDb2dPolyline
 66
     1
 10
0.0
 20
0.0
 30
0.0
  0
VERTEX
  5
FE
100
AcDbEntity
  8
EBENE_1
 62
   250
100
AcDbVertex
100
AcDb2dVertex
 10
46.568389
 20
138.618929
 30
0.0
  0
VERTEX
  5
FF
100
AcDbEntity
  8
EBENE_1
 62
   250
100
AcDbVertex
100
AcDb2dVertex
 10
90.028269
 20
138.618929
 30
0.0
  0
VERTEX
  5
100
100
AcDbEntity
  8
EBENE_1
 62
   250
100
AcDbVertex
100
AcDb2dVertex
 10
93.924672
 20
145.119135
 30
0.0
  0
SEQEND
  5
101
100
AcDbEntity
  8
EBENE_1
 62
   250
  0
LINE
  5
FC
100
AcDbEntity
  8
EBENE_1
 62
   250
100
AcDbLine
 10
109.268094
 20
95.188677
 30
0.0
 11
109.268094
 21
145.188726
 31
0.0
  0
POLYLINE
  5
F6
100
AcDbEntity
  8
EBENE_1
 62
   250
100
AcDb2dPolyline
 66
     1
 10
0.0
 20
0.0
 30
0.0
  0
VERTEX
  5
F7
100
AcDbEntity
  8
EBENE_1
 62
   250
100
AcDbVertex
100
AcDb2dVertex
 10
46.568389
 20
145.119135
 30
0.0
  0
VERTEX
  5
F8
100
AcDbEntity
  8
EBENE_1
 62
   250
100
AcDbVertex
100
AcDb2dVertex
 10
133.079905
 20
145.119135
 30
0.0
  0
VERTEX
  5
F9
100
AcDbEntity
  8
EBENE_1
 62
   250
100
AcDbVertex
100
AcDb2dVertex
 10
133.079905
 20
95.119086
 30
0.0
  0
VERTEX
  5
FA
100
AcDbEntity
  8
EBENE_1
 62
   250
100
AcDbVertex
100
AcDb2dVertex
 10
46.568389
 20
95.119086
 30
0.0
  0
SEQEND
  5
FB
100
AcDbEntity
  8
EBENE_1
 62
   250
  0
LINE
  5
F5
100
AcDbEntity
  8
EBENE_1
 62
   250
100
AcDbLine
 10
133.050277
 20
141.119379
 30
0.0
 11
91.567882
 21
141.119379
 31
0.0
  0
POLYLINE
  5
EF
100
AcDbEntity
  8
EBENE_1
 62
   250
100
AcDb2dPolyline
 66
     1
 10
0.0
 20
0.0
 30
0.0
 70
     1
  0
VERTEX
  5
F0
100
AcDbEntity
  8
EBENE_1
 62
   250
100
AcDbVertex
100
AcDb2dVertex
 10
133.067502
 20
95.119086
 30
0.0
  0
VERTEX
  5
F1
100
AcDbEntity
  8
EBENE_1
 62
   250
100
AcDbVertex
100
AcDb2dVertex
 10
138.067714
 20
95.119086
 30
0.0
  0
VERTEX
  5
F2
100
AcDbEntity
  8
EBENE_1
 62
   250
100
AcDbVertex
100
AcDb2dVertex
 10
138.067714
 20
195.119529
 30
0.0
  0
VERTEX
  5
F3
100
AcDbEntity
  8
EBENE_1
 62
   250
100
AcDbVertex
100
AcDb2dVertex
 10
133.067502
 20
195.119529
 30
0.0
  0
SEQEND
  5
F4
100
AcDbEntity
  8
EBENE_1
 62
   250
  0
POLYLINE
  5
E9
100
AcDbEntity
  8
EBENE_1
 62
   250
100
AcDb2dPolyline
 66
     1
 10
0.0
 20
0.0
 30
0.0
 70
     1
  0
VERTEX
  5
EA
100
AcDbEntity
  8
EBENE_1
 62
   250
100
AcDbVertex
100
AcDb2dVertex
 10
138.067714
 20
95.119086
 30
0.0
  0
VERTEX
  5
EB
100
AcDbEntity
  8
EBENE_1
 62
   250
100
AcDbVertex
100
AcDb2dVertex
 10
202.56748
 20
95.119086
 30
0.0
  0
VERTEX
  5
EC
100
AcDbEntity
  8
EBENE_1
 62
   250
100
AcDbVertex
100
AcDb2dVertex
 10
202.56748
 20
195.119529
 30
0.0
  0
VERTEX
  5
ED
100
AcDbEntity
  8
EBENE_1
 62
   250
100
AcDbVertex
100
AcDb2dVertex
 10
138.067714
 20
195.119529
 30
0.0
  0
SEQEND
  5
EE
100
AcDbEntity
  8
EBENE_1
 62
   250
  0
POLYLINE
  5
E3
100
AcDbEntity
  8
EBENE_1
 62
   250
100
AcDb2dPolyline
 66
     1
 10
0.0
 20
0.0
 30
0.0
 70
     1
  0
VERTEX
  5
E4
100
AcDbEntity
  8
EBENE_1
 62
   250
100
AcDbVertex
100
AcDb2dVertex
 10
202.45517
 20
95.119086
 30
0.0
  0
VERTEX
  5
E5
100
AcDbEntity
  8
EBENE_1
 62
   250
100
AcDbVertex
100
AcDb2dVertex
 10
207.567692
 20
95.119086
 30
0.0
  0
VERTEX
  5
E6
100
AcDbEntity
  8
EBENE_1
 62
   250
100
AcDbVertex
100
AcDb2dVertex
 10
207.567692
 20
195.119529
 30
0.0
  0
VERTEX
  5
E7
100
AcDbEntity
  8
EBENE_1
 62
   250
100
AcDbVertex
100
AcDb2dVertex
 10
202.45517
 20
195.119529
 30
0.0
  0
SEQEND
  5
E8
100
AcDbEntity
  8
EBENE_1
 62
   250
  0
MTEXT
  5
E2
100
AcDbEntity
  8
EBENE_1
 62
   250
100
AcDbMText
 10
57.723608
 20
204.69764
 30
0.0
 40
3.674769
 41
0.0
 71
     1
 72
     2
  1
\fMyriad Roman|b0|i0; 93.5mm 
  7
STD
210
0.0
220
0.0
230
1.0
 11
1.000001
 21
0.0
 31
0.0
 73
     1
 44
1.0
  0
POLYLINE
  5
DD
100
AcDbEntity
  8
EBENE_1
 62
   250
100
AcDb2dPolyline
 66
     1
 10
0.0
 20
0.0
 30
0.0
 70
     1
  0
VERTEX
  5
DE
100
AcDbEntity
  8
EBENE_1
 62
   250
100
AcDbVertex
100
AcDb2dVertex
 10
133.067502
 20
202.619501
 30
0.0
  0
VERTEX
  5
DF
100
AcDbEntity
  8
EBENE_1
 62
   250
100
AcDbVertex
100
AcDb2dVertex
 10
129.067057
 20
201.622491
 30
0.0
  0
VERTEX
  5
E0
100
AcDbEntity
  8
EBENE_1
 62
   250
100
AcDbVertex
100
AcDb2dVertex
 10
129.067057
 20
203.616512
 30
0.0
  0
SEQEND
  5
E1
100
AcDbEntity
  8
EBENE_1
 62
   250
  0
HATCH
  5
DC
100
AcDbEntity
  8
EBENE_1
 62
   250
100
AcDbHatch
 10
0.0
 20
0.0
 30
0.0
210
0.0
220
0.0
230
1.0
  2
SOLID
 70
     1
 71
     0
 91
        1
 92
        3
 72
     0
 73
     1
 93
        3
 10
133.06750217013888
 20
202.61950141059026
 10
129.06705729166666
 20
201.6224907769097
 10
129.06705729166666
 20
203.61651204427082
 97
        0
 75
     0
 76
     1
 98
        1
 10
0.0
 20
0.0
  0
LINE
  5
DB
100
AcDbEntity
  8
EBENE_1
 62
   250
100
AcDbLine
 10
78.91663
 20
202.619501
 30
0.0
 11
133.067502
 21
202.619501
 31
0.0
  0
POLYLINE
  5
D6
100
AcDbEntity
  8
EBENE_1
 62
   250
100
AcDb2dPolyline
 66
     1
 10
0.0
 20
0.0
 30
0.0
 70
     1
  0
VERTEX
  5
D7
100
AcDbEntity
  8
EBENE_1
 62
   250
100
AcDbVertex
100
AcDb2dVertex
 10
39.5683
 20
202.619501
 30
0.0
  0
VERTEX
  5
D8
100
AcDbEntity
  8
EBENE_1
 62
   250
100
AcDbVertex
100
AcDb2dVertex
 10
43.569434
 20
203.616512
 30
0.0
  0
VERTEX
  5
D9
100
AcDbEntity
  8
EBENE_1
 62
   250
100
AcDbVertex
100
AcDb2dVertex
 10
43.569434
 20
201.622491
 30
0.0
  0
SEQEND
  5
DA
100
AcDbEntity
  8
EBENE_1
 62
   250
  0
HATCH
  5
D5
100
AcDbEntity
  8
EBENE_1
 62
   250
100
AcDbHatch
 10
0.0
 20
0.0
 30
0.0
210
0.0
220
0.0
230
1.0
  2
SOLID
 70
     1
 71
     0
 91
        1
 92
        3
 72
     0
 73
     1
 93
        3
 10
39.568299696180553
 20
202.61950141059026
 10
43.569433593749999
 20
203.61651204427082
 10
43.569433593749999
 20
201.6224907769097
 97
        0
 75
     0
 76
     1
 98
        1
 10
0.0
 20
0.0
  0
LINE
  5
D4
100
AcDbEntity
  8
EBENE_1
 62
   250
100
AcDbLine
 10
56.760187
 20
202.619501
 30
0.0
 11
39.5683
 21
202.619501
 31
0.0
  0
LINE
  5
D3
100
AcDbEntity
  8
EBENE_1
 62
   250
100
AcDbLine
 10
39.5683
 20
147.619586
 30
0.0
 11
39.5683
 21
210.686709
 31
0.0
  0
MTEXT
  5
D2
100
AcDbEntity
  8
EBENE_1
 62
   250
100
AcDbMText
 10
-15.427999
 20
121.783666
 30
0.0
 40
3.674769
 41
0.0
 71
     1
 72
     2
  1
\fMyriad Roman|b0|i0; 55.0 
  7
STD
210
0.0
220
0.0
230
1.0
 11
1.000001
 21
0.0
 31
0.0
 73
     1
 44
1.0
  0
POLYLINE
  5
CD
100
AcDbEntity
  8
EBENE_1
 62
   250
100
AcDb2dPolyline
 66
     1
 10
0.0
 20
0.0
 30
0.0
 70
     1
  0
VERTEX
  5
CE
100
AcDbEntity
  8
EBENE_1
 62
   250
100
AcDbVertex
100
AcDb2dVertex
 10
-9.431638
 20
92.619325
 30
0.0
  0
VERTEX
  5
CF
100
AcDbEntity
  8
EBENE_1
 62
   250
100
AcDbVertex
100
AcDb2dVertex
 10
-10.428649
 20
96.620459
 30
0.0
  0
VERTEX
  5
D0
100
AcDbEntity
  8
EBENE_1
 62
   250
100
AcDbVertex
100
AcDb2dVertex
 10
-8.434627
 20
96.620459
 30
0.0
  0
SEQEND
  5
D1
100
AcDbEntity
  8
EBENE_1
 62
   250
  0
HATCH
  5
CC
100
AcDbEntity
  8
EBENE_1
 62
   250
100
AcDbHatch
 10
0.0
 20
0.0
 30
0.0
210
0.0
220
0.0
230
1.0
  2
SOLID
 70
     1
 71
     0
 91
        1
 92
        3
 72
     0
 73
     1
 93
        3
 10
-9.4316379123263872
 20
92.619325086805546
 10
-10.428648546006944
 20
96.620458984374991
 10
-8.4346272786458325
 20
96.620458984374991
 97
        0
 75
     0
 76
     1
 98
        1
 10
0.0
 20
0.0
  0
LINE
  5
CB
100
AcDbEntity
  8
EBENE_1
 62
   250
100
AcDbLine
 10
-9.431638
 20
118.119233
 30
0.0
 11
-9.431638
 21
92.619325
 31
0.0
  0
POLYLINE
  5
C6
100
AcDbEntity
  8
EBENE_1
 62
   250
100
AcDb2dPolyline
 66
     1
 10
0.0
 20
0.0
 30
0.0
 70
     1
  0
VERTEX
  5
C7
100
AcDbEntity
  8
EBENE_1
 62
   250
100
AcDbVertex
100
AcDb2dVertex
 10
-9.431638
 20
147.619586
 30
0.0
  0
VERTEX
  5
C8
100
AcDbEntity
  8
EBENE_1
 62
   250
100
AcDbVertex
100
AcDb2dVertex
 10
-8.434627
 20
143.618452
 30
0.0
  0
VERTEX
  5
C9
100
AcDbEntity
  8
EBENE_1
 62
   250
100
AcDbVertex
100
AcDb2dVertex
 10
-10.428649
 20
143.618452
 30
0.0
  0
SEQEND
  5
CA
100
AcDbEntity
  8
EBENE_1
 62
   250
  0
HATCH
  5
C5
100
AcDbEntity
  8
EBENE_1
 62
   250
100
AcDbHatch
 10
0.0
 20
0.0
 30
0.0
210
0.0
220
0.0
230
1.0
  2
SOLID
 70
     1
 71
     0
 91
        1
 92
        3
 72
     0
 73
     1
 93
        3
 10
-9.4316379123263872
 20
147.61958550347222
 10
-8.4346272786458325
 20
143.61845160590278
 10
-10.428648546006944
 20
143.61845160590278
 97
        0
 75
     0
 76
     1
 98
        1
 10
0.0
 20
0.0
  0
LINE
  5
C4
100
AcDbEntity
  8
EBENE_1
 62
   250
100
AcDbLine
 10
-9.431638
 20
122.118989
 30
0.0
 11
-9.431638
 21
147.619586
 31
0.0
  0
LINE
  5
C3
100
AcDbEntity
  8
EBENE_1
 62
   250
100
AcDbLine
 10
39.5683
 20
92.619325
 30
0.0
 11
-9.431638
 21
92.619325
 31
0.0
  0
LINE
  5
C2
100
AcDbEntity
  8
EBENE_1
 62
   250
100
AcDbLine
 10
39.5683
 20
147.619586
 30
0.0
 11
-9.431638
 21
147.619586
 31
0.0
  0
MTEXT
  5
C1
100
AcDbEntity
  8
EBENE_1
 62
   250
100
AcDbMText
 10
-4.665521
 20
121.783666
 30
0.0
 40
3.674769
 41
0.0
 71
     1
 72
     2
  1
\fMyriad Roman|b0|i0; 40j6 
  7
STD
210
0.0
220
0.0
230
1.0
 11
1.000001
 21
0.0
 31
0.0
 73
     1
 44
1.0
  0
POLYLINE
  5
BC
100
AcDbEntity
  8
EBENE_1
 62
   250
100
AcDb2dPolyline
 66
     1
 10
0.0
 20
0.0
 30
0.0
 70
     1
  0
VERTEX
  5
BD
100
AcDbEntity
  8
EBENE_1
 62
   250
100
AcDbVertex
100
AcDb2dVertex
 10
0.568441
 20
140.118924
 30
0.0
  0
VERTEX
  5
BE
100
AcDbEntity
  8
EBENE_1
 62
   250
100
AcDbVertex
100
AcDb2dVertex
 10
1.565451
 20
136.118479
 30
0.0
  0
VERTEX
  5
BF
100
AcDbEntity
  8
EBENE_1
 62
   250
100
AcDbVertex
100
AcDb2dVertex
 10
-0.42857
 20
136.118479
 30
0.0
  0
SEQEND
  5
C0
100
AcDbEntity
  8
EBENE_1
 62
   250
  0
HATCH
  5
BB
100
AcDbEntity
  8
EBENE_1
 62
   250
100
AcDbHatch
 10
0.0
 20
0.0
 30
0.0
210
0.0
220
0.0
230
1.0
  2
SOLID
 70
     1
 71
     0
 91
        1
 92
        3
 72
     0
 73
     1
 93
        3
 10
0.5684407552083333
 20
140.11892361111109
 10
1.5654513888888888
 20
136.11847873263886
 10
-0.4285698784722222
 20
136.11847873263886
 97
        0
 75
     0
 76
     1
 98
        1
 10
0.0
 20
0.0
  0
LINE
  5
BA
100
AcDbEntity
  8
EBENE_1
 62
   250
100
AcDbLine
 10
0.568441
 20
122.118989
 30
0.0
 11
0.568441
 21
140.118924
 31
0.0
  0
POLYLINE
  5
B5
100
AcDbEntity
  8
EBENE_1
 62
   250
100
AcDb2dPolyline
 66
     1
 10
0.0
 20
0.0
 30
0.0
 70
     1
  0
VERTEX
  5
B6
100
AcDbEntity
  8
EBENE_1
 62
   250
100
AcDbVertex
100
AcDb2dVertex
 10
0.568441
 20
100.119298
 30
0.0
  0
VERTEX
  5
B7
100
AcDbEntity
  8
EBENE_1
 62
   250
100
AcDbVertex
100
AcDb2dVertex
 10
-0.42857
 20
104.120432
 30
0.0
  0
VERTEX
  5
B8
100
AcDbEntity
  8
EBENE_1
 62
   250
100
AcDbVertex
100
AcDb2dVertex
 10
1.565451
 20
104.120432
 30
0.0
  0
SEQEND
  5
B9
100
AcDbEntity
  8
EBENE_1
 62
   250
  0
HATCH
  5
B4
100
AcDbEntity
  8
EBENE_1
 62
   250
100
AcDbHatch
 10
0.0
 20
0.0
 30
0.0
210
0.0
220
0.0
230
1.0
  2
SOLID
 70
     1
 71
     0
 91
        1
 92
        3
 72
     0
 73
     1
 93
        3
 10
0.5684407552083333
 20
100.11929796006943
 10
-0.4285698784722222
 20
104.12043185763888
 10
1.5654513888888888
 20
104.12043185763888
 97
        0
 75
     0
 76
     1
 98
        1
 10
0.0
 20
0.0
  0
LINE
  5
B3
100
AcDbEntity
  8
EBENE_1
 62
   250
100
AcDbLine
 10
0.568441
 20
118.119233
 30
0.0
 11
0.568441
 21
100.119298
 31
0.0
  0
LINE
  5
B2
100
AcDbEntity
  8
EBENE_1
 62
   250
100
AcDbLine
 10
37.068538
 20
140.118924
 30
0.0
 11
0.568441
 21
140.118924
 31
0.0
  0
LINE
  5
B1
100
AcDbEntity
  8
EBENE_1
 62
   250
100
AcDbLine
 10
37.068538
 20
100.119298
 30
0.0
 11
0.568441
 21
100.119298
 31
0.0
  0
MTEXT
  5
B0
100
AcDbEntity
  8
EBENE_1
 62
   250
100
AcDbMText
 10
5.673039
 20
121.630704
 30
0.0
 40
3.674769
 41
0.0
 71
     1
 72
     2
  1
\fMyriad Roman|b0|i0; 8k6 
  7
STD
210
0.0
220
0.0
230
1.0
 11
1.000001
 21
0.0
 31
0.0
 73
     1
 44
1.0
  0
POLYLINE
  5
AB
100
AcDbEntity
  8
EBENE_1
 62
   250
100
AcDb2dPolyline
 66
     1
 10
0.0
 20
0.0
 30
0.0
 70
     1
  0
VERTEX
  5
AC
100
AcDbEntity
  8
EBENE_1
 62
   250
100
AcDbVertex
100
AcDb2dVertex
 10
9.068525
 20
124.119211
 30
0.0
  0
VERTEX
  5
AD
100
AcDbEntity
  8
EBENE_1
 62
   250
100
AcDbVertex
100
AcDb2dVertex
 10
8.071514
 20
128.120345
 30
0.0
  0
VERTEX
  5
AE
100
AcDbEntity
  8
EBENE_1
 62
   250
100
AcDbVertex
100
AcDb2dVertex
 10
10.065535
 20
128.120345
 30
0.0
  0
SEQEND
  5
AF
100
AcDbEntity
  8
EBENE_1
 62
   250
  0
HATCH
  5
AA
100
AcDbEntity
  8
EBENE_1
 62
   250
100
AcDbHatch
 10
0.0
 20
0.0
 30
0.0
210
0.0
220
0.0
230
1.0
  2
SOLID
 70
     1
 71
     0
 91
        1
 92
        3
 72
     0
 73
     1
 93
        3
 10
9.0685248480902771
 20
124.11921115451388
 10
8.0715142144097207
 20
128.12034505208331
 10
10.065535481770832
 20
128.12034505208331
 97
        0
 75
     0
 76
     1
 98
        1
 10
0.0
 20
0.0
  0
LINE
  5
A9
100
AcDbEntity
  8
EBENE_1
 62
   250
100
AcDbLine
 10
9.068525
 20
132.119412
 30
0.0
 11
9.068525
 21
124.119211
 31
0.0
  0
POLYLINE
  5
A4
100
AcDbEntity
  8
EBENE_1
 62
   250
100
AcDb2dPolyline
 66
     1
 10
0.0
 20
0.0
 30
0.0
 70
     1
  0
VERTEX
  5
A5
100
AcDbEntity
  8
EBENE_1
 62
   250
100
AcDbVertex
100
AcDb2dVertex
 10
9.068525
 20
116.11901
 30
0.0
  0
VERTEX
  5
A6
100
AcDbEntity
  8
EBENE_1
 62
   250
100
AcDbVertex
100
AcDb2dVertex
 10
10.065535
 20
112.118566
 30
0.0
  0
VERTEX
  5
A7
100
AcDbEntity
  8
EBENE_1
 62
   250
100
AcDbVertex
100
AcDb2dVertex
 10
8.071514
 20
112.118566
 30
0.0
  0
SEQEND
  5
A8
100
AcDbEntity
  8
EBENE_1
 62
   250
  0
HATCH
  5
A3
100
AcDbEntity
  8
EBENE_1
 62
   250
100
AcDbHatch
 10
0.0
 20
0.0
 30
0.0
210
0.0
220
0.0
230
1.0
  2
SOLID
 70
     1
 71
     0
 91
        1
 92
        3
 72
     0
 73
     1
 93
        3
 10
9.0685248480902771
 20
116.11901041666665
 10
10.065535481770832
 20
112.11856553819443
 10
8.0715142144097207
 20
112.11856553819443
 97
        0
 75
     0
 76
     1
 98
        1
 10
0.0
 20
0.0
  0
LINE
  5
A2
100
AcDbEntity
  8
EBENE_1
 62
   250
100
AcDbLine
 10
9.068525
 20
108.119499
 30
0.0
 11
9.068525
 21
116.11901
 31
0.0
  0
LINE
  5
A1
100
AcDbEntity
  8
EBENE_1
 62
   250
100
AcDbLine
 10
15.568387
 20
124.119211
 30
0.0
 11
9.068525
 21
124.119211
 31
0.0
  0
LINE
  5
A0
100
AcDbEntity
  8
EBENE_1
 62
   250
100
AcDbLine
 10
15.568387
 20
116.11901
 30
0.0
 11
9.068525
 21
116.11901
 31
0.0
  0
MTEXT
  5
9F
100
AcDbEntity
  8
EBENE_1
 62
   250
100
AcDbMText
 10
23.459033
 20
88.546074
 30
0.0
 40
3.674769
 41
0.0
 71
     1
 72
     2
  1
\fMyriad Roman|b0|i0; 7.0 
  7
STD
210
0.0
220
0.0
230
1.0
 11
1.000001
 21
0.0
 31
0.0
 73
     1
 44
1.0
  0
POLYLINE
  5
9A
100
AcDbEntity
  8
EBENE_1
 62
   250
100
AcDb2dPolyline
 66
     1
 10
0.0
 20
0.0
 30
0.0
 70
     1
  0
VERTEX
  5
9B
100
AcDbEntity
  8
EBENE_1
 62
   250
100
AcDbVertex
100
AcDb2dVertex
 10
39.5683
 20
86.119119
 30
0.0
  0
VERTEX
  5
9C
100
AcDbEntity
  8
EBENE_1
 62
   250
100
AcDbVertex
100
AcDb2dVertex
 10
35.56751
 20
85.122108
 30
0.0
  0
VERTEX
  5
9D
100
AcDbEntity
  8
EBENE_1
 62
   250
100
AcDbVertex
100
AcDb2dVertex
 10
35.56751
 20
87.11613
 30
0.0
  0
SEQEND
  5
9E
100
AcDbEntity
  8
EBENE_1
 62
   250
  0
HATCH
  5
99
100
AcDbEntity
  8
EBENE_1
 62
   250
100
AcDbHatch
 10
0.0
 20
0.0
 30
0.0
210
0.0
220
0.0
230
1.0
  2
SOLID
 70
     1
 71
     0
 91
        1
 92
        3
 72
     0
 73
     1
 93
        3
 10
39.568299696180553
 20
86.119118923611097
 10
35.567510308159719
 20
85.122108289930551
 10
35.567510308159719
 20
87.116129557291657
 97
        0
 75
     0
 76
     1
 98
        1
 10
0.0
 20
0.0
  0
LINE
  5
98
100
AcDbEntity
  8
EBENE_1
 62
   250
100
AcDbLine
 10
31.568443
 20
86.119119
 30
0.0
 11
39.5683
 21
86.119119
 31
0.0
  0
POLYLINE
  5
93
100
AcDbEntity
  8
EBENE_1
 62
   250
100
AcDb2dPolyline
 66
     1
 10
0.0
 20
0.0
 30
0.0
 70
     1
  0
VERTEX
  5
94
100
AcDbEntity
  8
EBENE_1
 62
   250
100
AcDbVertex
100
AcDb2dVertex
 10
46.568389
 20
86.119119
 30
0.0
  0
VERTEX
  5
95
100
AcDbEntity
  8
EBENE_1
 62
   250
100
AcDbVertex
100
AcDb2dVertex
 10
50.569523
 20
87.11613
 30
0.0
  0
VERTEX
  5
96
100
AcDbEntity
  8
EBENE_1
 62
   250
100
AcDbVertex
100
AcDb2dVertex
 10
50.569523
 20
85.122108
 30
0.0
  0
SEQEND
  5
97
100
AcDbEntity
  8
EBENE_1
 62
   250
  0
HATCH
  5
92
100
AcDbEntity
  8
EBENE_1
 62
   250
100
AcDbHatch
 10
0.0
 20
0.0
 30
0.0
210
0.0
220
0.0
230
1.0
  2
SOLID
 70
     1
 71
     0
 91
        1
 92
        3
 72
     0
 73
     1
 93
        3
 10
46.56838921440972
 20
86.119118923611097
 10
50.569523111979159
 20
87.116129557291657
 10
50.569523111979159
 20
85.122108289930551
 97
        0
 75
     0
 76
     1
 98
        1
 10
0.0
 20
0.0
  0
LINE
  5
91
100
AcDbEntity
  8
EBENE_1
 62
   250
100
AcDbLine
 10
54.56859
 20
86.119119
 30
0.0
 11
46.568389
 21
86.119119
 31
0.0
  0
LINE
  5
90
100
AcDbEntity
  8
EBENE_1
 62
   250
100
AcDbLine
 10
39.5683
 20
92.619325
 30
0.0
 11
39.5683
 21
86.119119
 31
0.0
  0
LINE
  5
8F
100
AcDbEntity
  8
EBENE_1
 62
   250
100
AcDbLine
 10
46.568389
 20
92.619325
 30
0.0
 11
46.568389
 21
86.119119
 31
0.0
  0
MTEXT
  5
8E
100
AcDbEntity
  8
EBENE_1
 62
   250
100
AcDbMText
 10
20.959272
 20
156.046002
 30
0.0
 40
3.674769
 41
0.0
 71
     1
 72
     2
  1
\fMyriad Roman|b0|i0; 2.5 
  7
STD
210
0.0
220
0.0
230
1.0
 11
1.000001
 21
0.0
 31
0.0
 73
     1
 44
1.0
  0
POLYLINE
  5
89
100
AcDbEntity
  8
EBENE_1
 62
   250
100
AcDb2dPolyline
 66
     1
 10
0.0
 20
0.0
 30
0.0
 70
     1
  0
VERTEX
  5
8A
100
AcDbEntity
  8
EBENE_1
 62
   250
100
AcDbVertex
100
AcDb2dVertex
 10
37.068538
 20
153.619564
 30
0.0
  0
VERTEX
  5
8B
100
AcDbEntity
  8
EBENE_1
 62
   250
100
AcDbVertex
100
AcDb2dVertex
 10
33.067405
 20
152.622553
 30
0.0
  0
VERTEX
  5
8C
100
AcDbEntity
  8
EBENE_1
 62
   250
100
AcDbVertex
100
AcDb2dVertex
 10
33.067405
 20
154.616574
 30
0.0
  0
SEQEND
  5
8D
100
AcDbEntity
  8
EBENE_1
 62
   250
  0
HATCH
  5
88
100
AcDbEntity
  8
EBENE_1
 62
   250
100
AcDbHatch
 10
0.0
 20
0.0
 30
0.0
210
0.0
220
0.0
230
1.0
  2
SOLID
 70
     1
 71
     0
 91
        1
 92
        3
 72
     0
 73
     1
 93
        3
 10
37.068538411458327
 20
153.61956380208332
 10
33.067404513888889
 20
152.62255316840276
 10
33.067404513888889
 20
154.61657443576388
 97
        0
 75
     0
 76
     1
 98
        1
 10
0.0
 20
0.0
  0
LINE
  5
87
100
AcDbEntity
  8
EBENE_1
 62
   250
100
AcDbLine
 10
29.068338
 20
153.619564
 30
0.0
 11
37.068538
 21
153.619564
 31
0.0
  0
POLYLINE
  5
82
100
AcDbEntity
  8
EBENE_1
 62
   250
100
AcDb2dPolyline
 66
     1
 10
0.0
 20
0.0
 30
0.0
 70
     1
  0
VERTEX
  5
83
100
AcDbEntity
  8
EBENE_1
 62
   250
100
AcDbVertex
100
AcDb2dVertex
 10
39.5683
 20
153.619564
 30
0.0
  0
VERTEX
  5
84
100
AcDbEntity
  8
EBENE_1
 62
   250
100
AcDbVertex
100
AcDb2dVertex
 10
43.569434
 20
154.616574
 30
0.0
  0
VERTEX
  5
85
100
AcDbEntity
  8
EBENE_1
 62
   250
100
AcDbVertex
100
AcDb2dVertex
 10
43.569434
 20
152.622553
 30
0.0
  0
SEQEND
  5
86
100
AcDbEntity
  8
EBENE_1
 62
   250
  0
HATCH
  5
81
100
AcDbEntity
  8
EBENE_1
 62
   250
100
AcDbHatch
 10
0.0
 20
0.0
 30
0.0
210
0.0
220
0.0
230
1.0
  2
SOLID
 70
     1
 71
     0
 91
        1
 92
        3
 72
     0
 73
     1
 93
        3
 10
39.568299696180553
 20
153.61956380208332
 10
43.569433593749999
 20
154.61657443576388
 10
43.569433593749999
 20
152.62255316840276
 97
        0
 75
     0
 76
     1
 98
        1
 10
0.0
 20
0.0
  0
LINE
  5
80
100
AcDbEntity
  8
EBENE_1
 62
   250
100
AcDbLine
 10
47.5685
 20
153.619564
 30
0.0
 11
39.5683
 21
153.619564
 31
0.0
  0
LINE
  5
7F
100
AcDbEntity
  8
EBENE_1
 62
   250
100
AcDbLine
 10
37.068538
 20
140.118924
 30
0.0
 11
37.068538
 21
153.619564
 31
0.0
  0
MTEXT
  5
7E
100
AcDbEntity
  8
EBENE_1
 62
   250
100
AcDbMText
 10
22.377101
 20
161.588472
 30
0.0
 40
3.674769
 41
0.0
 71
     1
 72
     2
  1
\fMyriad Roman|b0|i0; 24.0 
  7
STD
210
0.0
220
0.0
230
1.0
 11
1.000001
 21
0.0
 31
0.0
 73
     1
 44
1.0
  0
POLYLINE
  5
79
100
AcDbEntity
  8
EBENE_1
 62
   250
100
AcDb2dPolyline
 66
     1
 10
0.0
 20
0.0
 30
0.0
 70
     1
  0
VERTEX
  5
7A
100
AcDbEntity
  8
EBENE_1
 62
   250
100
AcDbVertex
100
AcDb2dVertex
 10
39.5683
 20
159.61937
 30
0.0
  0
VERTEX
  5
7B
100
AcDbEntity
  8
EBENE_1
 62
   250
100
AcDbVertex
100
AcDb2dVertex
 10
35.56751
 20
158.622359
 30
0.0
  0
VERTEX
  5
7C
100
AcDbEntity
  8
EBENE_1
 62
   250
100
AcDbVertex
100
AcDb2dVertex
 10
35.56751
 20
160.61638
 30
0.0
  0
SEQEND
  5
7D
100
AcDbEntity
  8
EBENE_1
 62
   250
  0
HATCH
  5
78
100
AcDbEntity
  8
EBENE_1
 62
   250
100
AcDbHatch
 10
0.0
 20
0.0
 30
0.0
210
0.0
220
0.0
230
1.0
  2
SOLID
 70
     1
 71
     0
 91
        1
 92
        3
 72
     0
 73
     1
 93
        3
 10
39.568299696180553
 20
159.61936984592012
 10
35.567510308159719
 20
158.62235921223956
 10
35.567510308159719
 20
160.61638047960068
 97
        0
 75
     0
 76
     1
 98
        1
 10
0.0
 20
0.0
  0
LINE
  5
77
100
AcDbEntity
  8
EBENE_1
 62
   250
100
AcDbLine
 10
34.068549
 20
159.61937
 30
0.0
 11
39.5683
 21
159.61937
 31
0.0
  0
POLYLINE
  5
72
100
AcDbEntity
  8
EBENE_1
 62
   250
100
AcDb2dPolyline
 66
     1
 10
0.0
 20
0.0
 30
0.0
 70
     1
  0
VERTEX
  5
73
100
AcDbEntity
  8
EBENE_1
 62
   250
100
AcDbVertex
100
AcDb2dVertex
 10
15.568387
 20
159.61937
 30
0.0
  0
VERTEX
  5
74
100
AcDbEntity
  8
EBENE_1
 62
   250
100
AcDbVertex
100
AcDb2dVertex
 10
19.56952
 20
160.61638
 30
0.0
  0
VERTEX
  5
75
100
AcDbEntity
  8
EBENE_1
 62
   250
100
AcDbVertex
100
AcDb2dVertex
 10
19.56952
 20
158.622359
 30
0.0
  0
SEQEND
  5
76
100
AcDbEntity
  8
EBENE_1
 62
   250
  0
HATCH
  5
71
100
AcDbEntity
  8
EBENE_1
 62
   250
100
AcDbHatch
 10
0.0
 20
0.0
 30
0.0
210
0.0
220
0.0
230
1.0
  2
SOLID
 70
     1
 71
     0
 91
        1
 92
        3
 72
     0
 73
     1
 93
        3
 10
15.568386501736109
 20
159.61936984592012
 10
19.569520399305553
 20
160.61638047960068
 10
19.569520399305553
 20
158.62235921223956
 97
        0
 75
     0
 76
     1
 98
        1
 10
0.0
 20
0.0
  0
LINE
  5
70
100
AcDbEntity
  8
EBENE_1
 62
   250
100
AcDbLine
 10
22.068593
 20
159.61937
 30
0.0
 11
15.568387
 21
159.61937
 31
0.0
  0
LINE
  5
6F
100
AcDbEntity
  8
EBENE_1
 62
   250
100
AcDbLine
 10
15.568387
 20
124.119211
 30
0.0
 11
15.568387
 21
159.61937
 31
0.0
  0
MTEXT
  5
6E
100
AcDbEntity
  8
EBENE_1
 62
   250
100
AcDbMText
 10
95.00781
 20
213.305556
 30
0.0
 40
3.674769
 41
0.0
 71
     1
 72
     2
  1
\fMyriad Roman|b0|i0;168mm 
  7
STD
210
0.0
220
0.0
230
1.0
 11
1.000001
 21
0.0
 31
0.0
 73
     1
 44
1.0
  0
POLYLINE
  5
69
100
AcDbEntity
  8
EBENE_1
 62
   250
100
AcDb2dPolyline
 66
     1
 10
0.0
 20
0.0
 30
0.0
 70
     1
  0
VERTEX
  5
6A
100
AcDbEntity
  8
EBENE_1
 62
   250
100
AcDbVertex
100
AcDb2dVertex
 10
207.567692
 20
210.619358
 30
0.0
  0
VERTEX
  5
6B
100
AcDbEntity
  8
EBENE_1
 62
   250
100
AcDbVertex
100
AcDb2dVertex
 10
203.566558
 20
209.622347
 30
0.0
  0
VERTEX
  5
6C
100
AcDbEntity
  8
EBENE_1
 62
   250
100
AcDbVertex
100
AcDb2dVertex
 10
203.566558
 20
211.616368
 30
0.0
  0
SEQEND
  5
6D
100
AcDbEntity
  8
EBENE_1
 62
   250
  0
HATCH
  5
68
100
AcDbEntity
  8
EBENE_1
 62
   250
100
AcDbHatch
 10
0.0
 20
0.0
 30
0.0
210
0.0
220
0.0
230
1.0
  2
SOLID
 70
     1
 71
     0
 91
        1
 92
        3
 72
     0
 73
     1
 93
        3
 10
207.56769205729165
 20
210.61935763888886
 10
203.56655815972221
 20
209.62234700520833
 10
203.56655815972221
 20
211.61636827256942
 97
        0
 75
     0
 76
     1
 98
        1
 10
0.0
 20
0.0
  0
LINE
  5
67
100
AcDbEntity
  8
EBENE_1
 62
   250
100
AcDbLine
 10
113.151405
 20
210.619358
 30
0.0
 11
207.567692
 21
210.619358
 31
0.0
  0
POLYLINE
  5
62
100
AcDbEntity
  8
EBENE_1
 62
   250
100
AcDb2dPolyline
 66
     1
 10
0.0
 20
0.0
 30
0.0
 70
     1
  0
VERTEX
  5
63
100
AcDbEntity
  8
EBENE_1
 62
   250
100
AcDbVertex
100
AcDb2dVertex
 10
39.5683
 20
210.619358
 30
0.0
  0
VERTEX
  5
64
100
AcDbEntity
  8
EBENE_1
 62
   250
100
AcDbVertex
100
AcDb2dVertex
 10
43.569434
 20
211.616368
 30
0.0
  0
VERTEX
  5
65
100
AcDbEntity
  8
EBENE_1
 62
   250
100
AcDbVertex
100
AcDb2dVertex
 10
43.569434
 20
209.622347
 30
0.0
  0
SEQEND
  5
66
100
AcDbEntity
  8
EBENE_1
 62
   250
  0
HATCH
  5
61
100
AcDbEntity
  8
EBENE_1
 62
   250
100
AcDbHatch
 10
0.0
 20
0.0
 30
0.0
210
0.0
220
0.0
230
1.0
  2
SOLID
 70
     1
 71
     0
 91
        1
 92
        3
 72
     0
 73
     1
 93
        3
 10
39.568299696180553
 20
210.61935763888886
 10
43.569433593749999
 20
211.61636827256942
 10
43.569433593749999
 20
209.62234700520833
 97
        0
 75
     0
 76
     1
 98
        1
 10
0.0
 20
0.0
  0
LINE
  5
60
100
AcDbEntity
  8
EBENE_1
 62
   250
100
AcDbLine
 10
94.039738
 20
210.619358
 30
0.0
 11
39.5683
 21
210.619358
 31
0.0
  0
LINE
  5
5F
100
AcDbEntity
  8
EBENE_1
 62
   250
100
AcDbLine
 10
207.567692
 20
195.119529
 30
0.0
 11
207.567692
 21
210.619358
 31
0.0
  0
MTEXT
  5
5E
100
AcDbEntity
  8
EBENE_1
 62
   250
100
AcDbMText
 10
163.129405
 20
204.879197
 30
0.0
 40
3.674769
 41
0.0
 71
     1
 72
     2
  1
\fMyriad Roman|b0|i0; 74.5 
  7
STD
210
0.0
220
0.0
230
1.0
 11
1.000001
 21
0.0
 31
0.0
 73
     1
 44
1.0
  0
POLYLINE
  5
59
100
AcDbEntity
  8
EBENE_1
 62
   250
100
AcDb2dPolyline
 66
     1
 10
0.0
 20
0.0
 30
0.0
 70
     1
  0
VERTEX
  5
5A
100
AcDbEntity
  8
EBENE_1
 62
   250
100
AcDbVertex
100
AcDb2dVertex
 10
207.567692
 20
202.619501
 30
0.0
  0
VERTEX
  5
5B
100
AcDbEntity
  8
EBENE_1
 62
   250
100
AcDbVertex
100
AcDb2dVertex
 10
203.566558
 20
201.622491
 30
0.0
  0
VERTEX
  5
5C
100
AcDbEntity
  8
EBENE_1
 62
   250
100
AcDbVertex
100
AcDb2dVertex
 10
203.566558
 20
203.616512
 30
0.0
  0
SEQEND
  5
5D
100
AcDbEntity
  8
EBENE_1
 62
   250
  0
HATCH
  5
58
100
AcDbEntity
  8
EBENE_1
 62
   250
100
AcDbHatch
 10
0.0
 20
0.0
 30
0.0
210
0.0
220
0.0
230
1.0
  2
SOLID
 70
     1
 71
     0
 91
        1
 92
        3
 72
     0
 73
     1
 93
        3
 10
207.56769205729165
 20
202.61950141059026
 10
203.56655815972221
 20
201.6224907769097
 10
203.56655815972221
 20
203.61651204427082
 97
        0
 75
     0
 76
     1
 98
        1
 10
0.0
 20
0.0
  0
LINE
  5
57
100
AcDbEntity
  8
EBENE_1
 62
   250
100
AcDbLine
 10
175.023942
 20
202.619501
 30
0.0
 11
207.567692
 21
202.619501
 31
0.0
  0
POLYLINE
  5
52
100
AcDbEntity
  8
EBENE_1
 62
   250
100
AcDb2dPolyline
 66
     1
 10
0.0
 20
0.0
 30
0.0
 70
     1
  0
VERTEX
  5
53
100
AcDbEntity
  8
EBENE_1
 62
   250
100
AcDbVertex
100
AcDb2dVertex
 10
133.067502
 20
202.619501
 30
0.0
  0
VERTEX
  5
54
100
AcDbEntity
  8
EBENE_1
 62
   250
100
AcDbVertex
100
AcDb2dVertex
 10
137.068636
 20
203.616512
 30
0.0
  0
VERTEX
  5
55
100
AcDbEntity
  8
EBENE_1
 62
   250
100
AcDbVertex
100
AcDb2dVertex
 10
137.068636
 20
201.622491
 30
0.0
  0
SEQEND
  5
56
100
AcDbEntity
  8
EBENE_1
 62
   250
  0
HATCH
  5
51
100
AcDbEntity
  8
EBENE_1
 62
   250
100
AcDbHatch
 10
0.0
 20
0.0
 30
0.0
210
0.0
220
0.0
230
1.0
  2
SOLID
 70
     1
 71
     0
 91
        1
 92
        3
 72
     0
 73
     1
 93
        3
 10
133.06750217013888
 20
202.61950141059026
 10
137.06863606770833
 20
203.61651204427082
 10
137.06863606770833
 20
201.6224907769097
 97
        0
 75
     0
 76
     1
 98
        1
 10
0.0
 20
0.0
  0
LINE
  5
50
100
AcDbEntity
  8
EBENE_1
 62
   250
100
AcDbLine
 10
162.527203
 20
202.619501
 30
0.0
 11
133.067502
 21
202.619501
 31
0.0
  0
LINE
  5
4F
100
AcDbEntity
  8
EBENE_1
 62
   250
100
AcDbLine
 10
207.567692
 20
195.119529
 30
0.0
 11
207.567692
 21
202.619501
 31
0.0
  0
LINE
  5
4E
100
AcDbEntity
  8
EBENE_1
 62
   250
100
AcDbLine
 10
133.08335
 20
195.212718
 30
0.0
 11
133.08335
 21
202.712691
 31
0.0
  0
MTEXT
  5
4D
100
AcDbEntity
  8
EBENE_1
 62
   250
100
AcDbMText
 10
211.979252
 20
138.058757
 30
0.0
 40
3.674769
 41
0.0
 71
     1
 72
     2
  1
\fMyriad Roman|b0|i0; 100.0 
  7
STD
210
0.0
220
0.0
230
1.0
 11
0.0
 21
1.0
 31
0.0
 73
     1
 44
1.0
  0
POLYLINE
  5
48
100
AcDbEntity
  8
EBENE_1
 62
   250
100
AcDb2dPolyline
 66
     1
 10
0.0
 20
0.0
 30
0.0
 70
     1
  0
VERTEX
  5
49
100
AcDbEntity
  8
EBENE_1
 62
   250
100
AcDbVertex
100
AcDb2dVertex
 10
214.067898
 20
95.119086
 30
0.0
  0
VERTEX
  5
4A
100
AcDbEntity
  8
EBENE_1
 62
   250
100
AcDbVertex
100
AcDb2dVertex
 10
213.070888
 20
99.12022
 30
0.0
  0
VERTEX
  5
4B
100
AcDbEntity
  8
EBENE_1
 62
   250
100
AcDbVertex
100
AcDb2dVertex
 10
215.064909
 20
99.12022
 30
0.0
  0
SEQEND
  5
4C
100
AcDbEntity
  8
EBENE_1
 62
   250
  0
HATCH
  5
47
100
AcDbEntity
  8
EBENE_1
 62
   250
100
AcDbHatch
 10
0.0
 20
0.0
 30
0.0
210
0.0
220
0.0
230
1.0
  2
SOLID
 70
     1
 71
     0
 91
        1
 92
        3
 72
     0
 73
     1
 93
        3
 10
214.06789822048609
 20
95.119086371527771
 10
213.07088758680553
 20
99.120220269097217
 10
215.06490885416665
 20
99.120220269097217
 97
        0
 75
     0
 76
     1
 98
        1
 10
0.0
 20
0.0
  0
LINE
  5
46
100
AcDbEntity
  8
EBENE_1
 62
   250
100
AcDbLine
 10
214.067898
 20
138.166933
 30
0.0
 11
214.067898
 21
95.119086
 31
0.0
  0
POLYLINE
  5
41
100
AcDbEntity
  8
EBENE_1
 62
   250
100
AcDb2dPolyline
 66
     1
 10
0.0
 20
0.0
 30
0.0
 70
     1
  0
VERTEX
  5
42
100
AcDbEntity
  8
EBENE_1
 62
   250
100
AcDbVertex
100
AcDb2dVertex
 10
214.067898
 20
195.119529
 30
0.0
  0
VERTEX
  5
43
100
AcDbEntity
  8
EBENE_1
 62
   250
100
AcDbVertex
100
AcDb2dVertex
 10
215.064909
 20
191.118395
 30
0.0
  0
VERTEX
  5
44
100
AcDbEntity
  8
EBENE_1
 62
   250
100
AcDbVertex
100
AcDb2dVertex
 10
213.070888
 20
191.118395
 30
0.0
  0
SEQEND
  5
45
100
AcDbEntity
  8
EBENE_1
 62
   250
  0
HATCH
  5
40
100
AcDbEntity
  8
EBENE_1
 62
   250
100
AcDbHatch
 10
0.0
 20
0.0
 30
0.0
210
0.0
220
0.0
230
1.0
  2
SOLID
 70
     1
 71
     0
 91
        1
 92
        3
 72
     0
 73
     1
 93
        3
 10
214.06789822048609
 20
195.11952853732637
 10
215.06490885416665
 20
191.11839463975693
 10
213.07088758680553
 20
191.11839463975693
 97
        0
 75
     0
 76
     1
 98
        1
 10
0.0
 20
0.0
  0
LINE
  5
3F
100
AcDbEntity
  8
EBENE_1
 62
   250
100
AcDbLine
 10
214.067898
 20
152.071338
 30
0.0
 11
214.067898
 21
195.119529
 31
0.0
  0
LINE
  5
3E
100
AcDbEntity
  8
EBENE_1
 62
   250
100
AcDbLine
 10
207.567692
 20
95.119086
 30
0.0
 11
214.067898
 21
95.119086
 31
0.0
  0
LINE
  5
3D
100
AcDbEntity
  8
EBENE_1
 62
   250
100
AcDbLine
 10
207.567692
 20
195.119529
 30
0.0
 11
214.067898
 21
195.119529
 31
0.0
  0
MTEXT
  5
3C
100
AcDbEntity
  8
EBENE_1
 62
   250
100
AcDbMText
 10
65.618389
 20
123.161704
 30
0.0
 40
3.674769
 41
0.0
 71
     1
 72
     2
  1
\fMyriad Roman|b0|i0; 50.0 
  7
STD
210
0.0
220
0.0
230
1.0
 11
1.000001
 21
0.0
 31
0.0
 73
     1
 44
1.0
  0
LINE
  5
3B
100
AcDbEntity
  8
EBENE_1
 62
   250
100
AcDbLine
 10
70.611883
 20
125.304324
 30
0.0
 11
70.611883
 21
145.19975
 31
0.0
  0
LINE
  5
3A
100
AcDbEntity
  8
EBENE_1
 62
   250
100
AcDbLine
 10
70.855279
 20
95.394005
 30
0.0
 11
70.855279
 21
116.994065
 31
0.0
  0
POLYLINE
  5
35
100
AcDbEntity
  8
EBENE_1
 62
   250
100
AcDb2dPolyline
 66
     1
 10
0.0
 20
0.0
 30
0.0
 70
     1
  0
VERTEX
  5
36
100
AcDbEntity
  8
EBENE_1
 62
   250
100
AcDbVertex
100
AcDb2dVertex
 10
70.90041
 20
95.065343
 30
0.0
  0
VERTEX
  5
37
100
AcDbEntity
  8
EBENE_1
 62
   250
100
AcDbVertex
100
AcDb2dVertex
 10
69.903399
 20
99.066477
 30
0.0
  0
VERTEX
  5
38
100
AcDbEntity
  8
EBENE_1
 62
   250
100
AcDbVertex
100
AcDb2dVertex
 10
71.89742
 20
99.066477
 30
0.0
  0
SEQEND
  5
39
100
AcDbEntity
  8
EBENE_1
 62
   250
  0
HATCH
  5
34
100
AcDbEntity
  8
EBENE_1
 62
   250
100
AcDbHatch
 10
0.0
 20
0.0
 30
0.0
210
0.0
220
0.0
230
1.0
  2
SOLID
 70
     1
 71
     0
 91
        1
 92
        3
 72
     0
 73
     1
 93
        3
 10
70.900409613715269
 20
95.065342881944431
 10
69.903398980034723
 20
99.066476779513877
 10
71.897420247395829
 20
99.066476779513877
 97
        0
 75
     0
 76
     1
 98
        1
 10
0.0
 20
0.0
  0
POLYLINE
  5
2F
100
AcDbEntity
  8
EBENE_1
 62
   250
100
AcDb2dPolyline
 66
     1
 10
0.0
 20
0.0
 30
0.0
 70
     1
  0
VERTEX
  5
30
100
AcDbEntity
  8
EBENE_1
 62
   250
100
AcDbVertex
100
AcDb2dVertex
 10
70.693876
 20
145.063325
 30
0.0
  0
VERTEX
  5
31
100
AcDbEntity
  8
EBENE_1
 62
   250
100
AcDbVertex
100
AcDb2dVertex
 10
71.690887
 20
141.06288
 30
0.0
  0
VERTEX
  5
32
100
AcDbEntity
  8
EBENE_1
 62
   250
100
AcDbVertex
100
AcDb2dVertex
 10
69.696866
 20
141.06288
 30
0.0
  0
SEQEND
  5
33
100
AcDbEntity
  8
EBENE_1
 62
   250
  0
HATCH
  5
2E
100
AcDbEntity
  8
EBENE_1
 62
   250
100
AcDbHatch
 10
0.0
 20
0.0
 30
0.0
210
0.0
220
0.0
230
1.0
  2
SOLID
 70
     1
 71
     0
 91
        1
 92
        3
 72
     0
 73
     1
 93
        3
 10
70.69387613932291
 20
145.06332465277777
 10
71.69088677300347
 20
141.06287977430554
 10
69.69686550564235
 20
141.06287977430554
 97
        0
 75
     0
 76
     1
 98
        1
 10
0.0
 20
0.0
  0
LINE
  5
2D
100
AcDbEntity
  8
EBENE_1
 62
   250
100
AcDbLine
 10
16.434484
 20
116.187223
 30
0.0
 11
16.434484
 21
124.108876
 31
0.0
  0
LINE
  5
2C
100
AcDbEntity
  8
EBENE_1
 62
   250
100
AcDbLine
 10
46.565805
 20
136.313471
 30
0.0
 11
109.307368
 21
136.313471
 31
0.0
  0
LINE
  5
2B
100
AcDbEntity
  8
EBENE_1
 62
   250
100
AcDbLine
 10
46.654
 20
133.233556
 30
0.0
 11
109.395562
 21
133.233556
 31
0.0
  0
LINE
  5
2A
100
AcDbEntity
  8
EBENE_1
 62
   250
100
AcDbLine
 10
46.477955
 20
104.019146
 30
0.0
 11
109.219173
 21
104.019146
 31
0.0
  0
LINE
  5
29
100
AcDbEntity
  8
EBENE_1
 62
   250
100
AcDbLine
 10
46.478128
 20
107.187256
 30
0.0
 11
109.219173
 21
107.187256
 31
0.0
  0
ENDSEC
  0
SECTION
  2
OBJECTS
  0
DICTIONARY
  5
19
100
AcDbDictionary
280
     0
281
     1
  3
ACAD_GROUP
350
1A
  3
ACAD_MLINESTYLE
350
1B
  3
ACAD_LAYOUT
350
1E
  3
ACAD_PLOTSETTINGS
350
22
  3
ACAD_PLOTSTYLENAME
350
1F
  3
ACAD_WIPEOUT_VARS
350
23
  0
DICTIONARY
  5
1A
102
{ACAD_REACTORS
330
19
102
}
100
AcDbDictionary
280
     0
281
     1
  0
DICTIONARY
  5
1B
102
{ACAD_REACTORS
330
19
102
}
100
AcDbDictionary
280
     0
281
     1
  3
Standard
350
1C
  0
MLINESTYLE
  5
1C
102
{ACAD_REACTORS
330
1B
102
}
100
AcDbMlineStyle
  2
Standard
 70
     0
  3

 62
     0
 51
90.0
 52
90.0
 71
     2
 49
0.5
 62
   256
  6
BYLAYER
 49
-0.5
 62
   256
  6
BYLAYER
  0
ACDBDICTIONARYWDFLT
  5
1F
102
{ACAD_REACTORS
330
19
102
}
100
AcDbDictionary
281
     1
  3
Normal
350
1D
100
AcDbDictionaryWithDefault
340
1D
  0
ACDBPLACEHOLDER
  5
1D
102
{ACAD_REACTORS
330
1F
102
}
  0
LAYOUT
  5
20
102
{ACAD_REACTORS
330
1E
102
}
100
AcDbPlotSettings
  1

  2

  4

  6

 40
0.0
 41
0.0
 42
0.0
 43
0.0
 44
0.0
 45
0.0
 46
0.0
 47
0.0
 48
0.0
 49
0.0
140
0.0
141
0.0
142
1.0
143
1.0
 70
  1024
 72
     0
 73
     0
 74
     0
  7

 75
     0
147
1.0
148
0.0
149
0.0
100
AcDbLayout
  1
Model
 70
     0
 71
     0
 10
0.0
 20
0.0
 11
0.0
 21
0.0
 12
0.0
 22
0.0
 32
0.0
 14
0.0
 24
0.0
 34
0.0
 15
0.0
 25
0.0
 35
0.0
146
0.0
 13
0.0
 23
0.0
 33
0.0
 16
0.0
 26
0.0
 36
0.0
 17
0.0
 27
0.0
 37
0.0
 76
     0
330
A
331
0
345
0
346
0
  0
LAYOUT
  5
21
102
{ACAD_REACTORS
330
1E
102
}
100
AcDbPlotSettings
  1

  2

  4

  6

 40
0.0
 41
0.0
 42
0.0
 43
0.0
 44
0.0
 45
0.0
 46
0.0
 47
0.0
 48
0.0
 49
0.0
140
0.0
141
0.0
142
1.0
143
1.0
 70
     0
 72
     0
 73
     0
 74
     0
  7

 75
     0
147
1.0
148
0.0
149
0.0
100
AcDbLayout
  1
Layout1
 70
     0
 71
     0
 10
0.0
 20
0.0
 11
0.0
 21
0.0
 12
0.0
 22
0.0
 32
0.0
 14
0.0
 24
0.0
 34
0.0
 15
0.0
 25
0.0
 35
0.0
146
0.0
 13
0.0
 23
0.0
 33
0.0
 16
0.0
 26
0.0
 36
0.0
 17
0.0
 27
0.0
 37
0.0
 76
     0
330
B
331
0
345
0
346
0
  0
DICTIONARY
  5
1E
102
{ACAD_REACTORS
330
19
102
}
100
AcDbDictionary
280
     0
281
     1
  3
Layout1
350
21
  3
Model
350
20
  0
DICTIONARY
  5
22
102
{ACAD_REACTORS
330
19
102
}
100
AcDbDictionary
280
     0
281
     1
  0
WIPEOUTVARIABLES
  5
23
100
AcDbWipeoutVariables
 70
     1
  0
ENDSEC
  0
EOF
