  0
SECTION
  2
HEADER
  9
$ACADVER
  1
AC1015
  9
$ACADMAINTVER
 70
     6
  9
$DWGCODEPAGE
  3
ANSI_932
  9
$INSBASE
 10
0.0
 20
0.0
 30
0.0
  9
$EXTMIN
 10
-57.076103
 20
84.114762
 30
1.000000E+20
  9
$EXTMAX
 10
258.618495
 20
214.132322
 30
-1.000000E+20
  9
$LIMMIN
 10
-57.076103
 20
84.114762
  9
$LIMMAX
 10
258.618495
 20
214.132322
  9
$ORTHOMODE
 70
     0
  9
$REGENMODE
 70
     1
  9
$FILLMODE
 70
     1
  9
$QTEXTMODE
 70
     0
  9
$MIRRTEXT
 70
     1
  9
$LTSCALE
 40
1.0
  9
$ATTMODE
 70
     1
  9
$TEXTSIZE
 40
0.2
  9
$TRACEWID
 40
0.05
  9
$TEXTSTYLE
  7
Standard
  9
$CLAYER
  8
0
  9
$CELTYPE
  6
Continuous
  9
$CECOLOR
 62
   256
  9
$CELTSCALE
 40
1.0
  9
$DISPSILH
 70
     0
  9
$DIMSCALE
 40
1.0
  9
$DIMASZ
 40
0.18
  9
$DIMEXO
 40
0.0625
  9
$DIMDLI
 40
0.38
  9
$DIMRND
 40
0.0
  9
$DIMDLE
 40
0.0
  9
$DIMEXE
 40
0.18
  9
$DIMTP
 40
0.0
  9
$DIMTM
 40
0.0
  9
$DIMTXT
 40
0.18
  9
$DIMCEN
 40
0.09
  9
$DIMTSZ
 40
0.0
  9
$DIMTOL
 70
     0
  9
$DIMLIM
 70
     0
  9
$DIMTIH
 70
     1
  9
$DIMTOH
 70
     1
  9
$DIMSE1
 70
     0
  9
$DIMSE2
 70
     0
  9
$DIMTAD
 70
     0
  9
$DIMZIN
 70
     0
  9
$DIMBLK
  1

  9
$DIMASO
 70
     1
  9
$DIMSHO
 70
     1
  9
$DIMPOST
  1

  9
$DIMAPOST
  1

  9
$DIMALT
 70
     0
  9
$DIMALTD
 70
     2
  9
$DIMALTF
 40
25.4
  9
$DIMLFAC
 40
1.0
  9
$DIMTOFL
 70
     0
  9
$DIMTVP
 40
0.0
  9
$DIMTIX
 70
     0
  9
$DIMSOXD
 70
     0
  9
$DIMSAH
 70
     0
  9
$DIMBLK1
  1

  9
$DIMBLK2
  1

  9
$DIMSTYLE
  2
Standard
  9
$DIMCLRD
 70
     0
  9
$DIMCLRE
 70
     0
  9
$DIMCLRT
 70
     0
  9
$DIMTFAC
 40
1.0
  9
$DIMGAP
 40
0.09
  9
$DIMJUST
 70
     0
  9
$DIMSD1
 70
     0
  9
$DIMSD2
 70
     0
  9
$DIMTOLJ
 70
     1
  9
$DIMTZIN
 70
     0
  9
$DIMALTZ
 70
     0
  9
$DIMALTTZ
 70
     0
  9
$DIMUPT
 70
     0
  9
$DIMDEC
 70
     4
  9
$DIMTDEC
 70
     4
  9
$DIMALTU
 70
     2
  9
$DIMALTTD
 70
     2
  9
$DIMTXSTY
  7
Standard
  9
$DIMAUNIT
 70
     0
  9
$DIMADEC
 70
     0
  9
$DIMALTRND
 40
0.0
  9
$DIMAZIN
 70
     0
  9
$DIMDSEP
 70
     0
  9
$DIMATFIT
 70
     3
  9
$DIMFRAC
 70
     0
  9
$DIMLDRBLK
  1

  9
$DIMLUNIT
 70
     2
  9
$DIMLWD
 70
     0
  9
$DIMLWE
 70
     0
  9
$DIMTMOVE
 70
     0
  9
$LUNITS
 70
     2
  9
$LUPREC
 70
     4
  9
$SKETCHINC
 40
0.1
  9
$FILLETRAD
 40
0.0
  9
$AUNITS
 70
     0
  9
$AUPREC
 70
     0
  9
$MENU
  1
acad
  9
$ELEVATION
 40
0.0
  9
$PELEVATION
 40
0.0
  9
$THICKNESS
 40
0.0
  9
$LIMCHECK
 70
     0
  9
$CHAMFERA
 40
0.0
  9
$CHAMFERB
 40
0.0
  9
$CHAMFERC
 40
0.0
  9
$CHAMFERD
 40
0.0
  9
$SKPOLY
 70
     0
  9
$TDCREATE
 40
0.000000000
  9
$TDUCREATE
 40
0.000000000
  9
$TDUPDATE
 40
0.000000000
  9
$TDUUPDATE
 40
0.000000000
  9
$TDINDWG
 40
0.0000000000
  9
$TDUSRTIMER
 40
0.0000000000
  9
$USRTIMER
 70
     1
  9
$ANGBASE
 50
0.0
  9
$ANGDIR
 70
     0
  9
$PDMODE
 70
     0
  9
$PDSIZE
 40
0.0
  9
$PLINEWID
 40
0.0
  9
$SPLFRAME
 70
     0
  9
$SPLINETYPE
 70
     6
  9
$SPLINESEGS
 70
     8
  9
$HANDSEED
  5
180
  9
$SURFTAB1
 70
     6
  9
$SURFTAB2
 70
     6
  9
$SURFTYPE
 70
     6
  9
$SURFU
 70
     6
  9
$SURFV
 70
     6
  9
$UCSBASE
  2

  9
$UCSNAME
  2

  9
$UCSORG
 10
0.0
 20
0.0
 30
0.0
  9
$UCSXDIR
 10
1.0
 20
0.0
 30
0.0
  9
$UCSYDIR
 10
0.0
 20
1.0
 30
0.0
  9
$UCSORTHOREF
  2

  9
$UCSORTHOVIEW
 70
     0
  9
$UCSORGTOP
 10
0.0
 20
0.0
 30
0.0
  9
$UCSORGBOTTOM
 10
0.0
 20
0.0
 30
0.0
  9
$UCSORGLEFT
 10
0.0
 20
0.0
 30
0.0
  9
$UCSORGRIGHT
 10
0.0
 20
0.0
 30
0.0
  9
$UCSORGFRONT
 10
0.0
 20
0.0
 30
0.0
  9
$UCSORGBACK
 10
0.0
 20
0.0
 30
0.0
  9
$PUCSBASE
  2

  9
$PUCSNAME
  2

  9
$PUCSORG
 10
0.0
 20
0.0
 30
0.0
  9
$PUCSXDIR
 10
1.0
 20
0.0
 30
0.0
  9
$PUCSYDIR
 10
0.0
 20
1.0
 30
0.0
  9
$PUCSORTHOREF
  2

  9
$PUCSORTHOVIEW
 70
     0
  9
$PUCSORGTOP
 10
0.0
 20
0.0
 30
0.0
  9
$PUCSORGBOTTOM
 10
0.0
 20
0.0
 30
0.0
  9
$PUCSORGLEFT
 10
0.0
 20
0.0
 30
0.0
  9
$PUCSORGRIGHT
 10
0.0
 20
0.0
 30
0.0
  9
$PUCSORGFRONT
 10
0.0
 20
0.0
 30
0.0
  9
$PUCSORGBACK
 10
0.0
 20
0.0
 30
0.0
  9
$USERI1
 70
     0
  9
$USERI2
 70
     0
  9
$USERI3
 70
     0
  9
$USERI4
 70
     0
  9
$USERI5
 70
     0
  9
$USERR1
 40
0.0
  9
$USERR2
 40
0.0
  9
$USERR3
 40
0.0
  9
$USERR4
 40
0.0
  9
$USERR5
 40
0.0
  9
$WORLDVIEW
 70
     1
  9
$SHADEDGE
 70
     3
  9
$SHADEDIF
 70
    70
  9
$TILEMODE
 70
     1
  9
$MAXACTVP
 70
    16
  9
$PINSBASE
 10
0.0
 20
0.0
 30
0.0
  9
$PLIMCHECK
 70
     0
  9
$PEXTMIN
 10
1.000000E+20
 20
1.000000E+20
 30
1.000000E+20
  9
$PEXTMAX
 10
-1.000000E+20
 20
-1.000000E+20
 30
-1.000000E+20
  9
$PLIMMIN
 10
0.0
 20
0.0
  9
$PLIMMAX
 10
12.0
 20
9.0
  9
$UNITMODE
 70
     0
  9
$VISRETAIN
 70
     0
  9
$PLINEGEN
 70
     1
  9
$PSLTSCALE
 70
     0
  9
$TREEDEPTH
 70
  3020
  9
$CMLSTYLE
  2
Standard
  9
$CMLJUST
 70
     0
  9
$CMLSCALE
 40
1.0
  9
$PROXYGRAPHICS
 70
     0
  9
$MEASUREMENT
 70
     0
  9
$CELWEIGHT
370
     0
  9
$ENDCAPS
280
     0
  9
$JOINSTYLE
280
     0
  9
$LWDISPLAY
290
     0
  9
$INSUNITS
 70
     0
  9
$HYPERLINKBASE
  1

  9
$XEDIT
290
     1
  9
$CEPSNTYPE
380
     0
  9
$PSTYLEMODE
290
     1
  9
$FINGERPRINTGUID
  2

  9
$VERSIONGUID
  2

  9
$EXTNAMES
290
     1
  9
$PSVPSCALE
 40
0.0
  0
ENDSEC
  0
SECTION
  2
CLASSES
  0
CLASS
  1
LWPOLYLINE
  2
AcDbPolyline
  3
"AutoCAD"
 90
        0
280
     0
281
     1
  0
CLASS
  1
IMAGE
  2
AcDbRasterImage
  3
ISM
 90
      127
280
     0
281
     1
  0
CLASS
  1
OLE2FRAME
  2
AcDbOle2Frame
  3
""
 90
        0
280
     0
281
     1
  0
CLASS
  1
HATCH
  2
AcDbHatch
  3
"ACAD_SEDONA"
 90
        0
280
     0
281
     1
  0
CLASS
  1
DICTIONARYVAR
  2
AcDbDictionaryVar
  3
"AutoCAD"
 90
        0
280
     0
281
     0
  0
CLASS
  1
RASTERVARIABLES
  2
AcDbRasterVariables
  3
ISM
 90
        0
280
     0
281
     0
  0
CLASS
  1
IMAGEDEF
  2
AcDbRasterImageDef
  3
ISM
 90
        0
280
     0
281
     0
  0
CLASS
  1
IMAGEDEF_REACTOR
  2
AcDbRasterImageDefReactor
  3
ISM
 90
        1
280
     0
281
     0
  0
CLASS
  1
IDBUFFER
  2
AcDbIdBuffer
  3
"Acad"
 90
        0
280
     0
281
     0
  0
CLASS
  1
SPATIAL_FILTER
  2
AcDbSpatialFilter
  3
"Acad"
 90
        0
280
     0
281
     0
  0
CLASS
  1
XRECORD
  2
AcDbXrecord
  3
"<Built In>"
 90
        0
280
     0
281
     0
  0
CLASS
  1
SORTENTSTABLE
  2
AcDbSortentsTable
  3
"AutoCAD"
 90
        0
280
     0
281
     0
  0
CLASS
  1
LAYER_INDEX
  2
AcDbLayerIndex
  3
"Acad"
 90
        0
280
     0
281
     0
  0
CLASS
  1
SPATIAL_INDEX
  2
AcDbSpatialIndex
  3
"Acad"
 90
        0
280
     0
281
     0
  0
CLASS
  1
OBJECT_PTR
  2
CAseDLPNTableRecord
  3
"ASE-LPNTableRecord"
 90
        1
280
     0
281
     0
  0
CLASS
  1
LAYOUT
  2
AcDbLayout
  3
"AutoCAD 2000"
 90
        1
280
     0
281
     0
  0
CLASS
  1
PLOTSETTINGS
  2
AcDbPlotSettings
  3
"AutoCAD 2000"
 90
        1
280
     0
281
     0
  0
CLASS
  1
ACDBDICTIONARYWDFLT
  2
AcDbDictionaryWithDefault
  3
"AutoCAD 2000"
 90
        1
280
     0
281
     0
  0
CLASS
  1
ACDBPLACEHOLDER
  2
AcDbPlaceHolder
  3
"AutoCAD 2000"
 90
        1
280
     0
281
     0
  0
CLASS
  1
VBA_PROJECT
  2
AcDbVbaProject
  3
"acadvba"
 90
        1
280
     0
281
     0
  0
CLASS
  1
WIPEOUT
  2
AcDbWipeout
  3
WipeOut|AutoCAD Express Tool|expresstools@autodesk.com
 90
      127
280
     0
281
     1
  0
CLASS
  1
WIPEOUTVARIABLES
  2
AcDbWipeoutVariables
  3
WipeOut|AutoCAD Express Tool|expresstools@autodesk.com
 90
        0
280
     0
281
     0
  0
CLASS
  1
RTEXT
  2
RText
  3
RText|AutoCAD Express Tool|expresstools@autodesk.com
 90
        0
280
     0
281
     1
  0
CLASS
  1
ARCALIGNEDTEXT
  2
AcDbArcAlignedText
  3
ATEXT|AutoCAD Express Tool|expresstools@autodesk.com
 90
        0
280
     0
281
     1
  0
ENDSEC
  0
SECTION
  2
TABLES
  0
TABLE
  2
VPORT
  5
7
100
AcDbSymbolTable
 70
     1
  0
VPORT
  5
15
100
AcDbSymbolTableRecord
100
AcDbViewportTableRecord
  2
*ACTIVE
 70
     0
 10
0.0
 20
0.0
 11
1.0
 21
1.0
 12
6.591288
 22
4.579184
 13
0.0
 23
0.0
 14
1.0
 24
1.0
 15
0.0
 25
0.0
 16
0.0
 26
0.0
 36
1.0
 17
0.0
 27
0.0
 37
0.0
 40
9.158369
 41
0.688564
 42
50.0
 43
0.0
 44
0.0
 50
0.0
 51
0.0
 71
     0
 72
   100
 73
     1
 74
     1
 75
     0
 76
     0
 77
     0
 78
     0
281
     0
 65
     0
110
0.0
120
0.0
130
0.0
111
1.0
121
0.0
131
0.0
112
0.0
122
1.0
132
0.0
345
0
346
0
 79
     0
146
0.0
  0
ENDTAB
  0
TABLE
  2
LTYPE
  5
4
100
AcDbSymbolTable
 70
     3
  0
LTYPE
  5
11
100
AcDbSymbolTableRecord
100
AcDbLinetypeTableRecord
  2
ByBlock
 70
    64
  3

 72
    65
 73
     0
 40
0.0
  0
LTYPE
  5
12
100
AcDbSymbolTableRecord
100
AcDbLinetypeTableRecord
  2
ByLayer
 70
    64
  3

 72
    65
 73
     0
 40
0.0
  0
LTYPE
  5
13
100
AcDbSymbolTableRecord
100
AcDbLinetypeTableRecord
  2
Continuous
 70
    64
  3
Solid line
 72
    65
 73
     0
 40
0.0
  0
ENDTAB
  0
TABLE
  2
LAYER
  5
2
100
AcDbSymbolTable
 70
     2
  0
LAYER
  5
14
100
AcDbSymbolTableRecord
100
AcDbLayerTableRecord
  2
0
 70
     0
 62
     7
  6
Continuous
290
     1
370
    -3
390
1D
  0
LAYER
  5
28
100
AcDbSymbolTableRecord
100
AcDbLayerTableRecord
  2
EBENE_1
 70
     0
 62
   160
  6
Continuous
290
     1
370
    -3
390
1F
  0
ENDTAB
  0
TABLE
  2
STYLE
  5
3
100
AcDbSymbolTable
 70
     5
  0
STYLE
  5
17
100
AcDbSymbolTableRecord
100
AcDbTextStyleTableRecord
  2
Standard
 70
     0
 40
0.0
 41
1.0
 50
0.0
 71
     0
 42
0.0
  3
txt
  4

  0
STYLE
  5
24
100
AcDbSymbolTableRecord
100
AcDbTextStyleTableRecord
  2
STD
 70
     0
 40
0.0
 41
1.0
 50
0.0
 71
     0
 42
0.0
  3
txt
  4

  0
STYLE
  5
25
100
AcDbSymbolTableRecord
100
AcDbTextStyleTableRecord
  2
TATESTD
 70
     4
 40
0.0
 41
1.0
 50
0.0
 71
     0
 42
0.0
  3
txt
  4

  0
STYLE
  5
26
100
AcDbSymbolTableRecord
100
AcDbTextStyleTableRecord
  2
KANJISTD
 70
     0
 40
0.0
 41
1.0
 50
0.0
 71
     0
 42
0.0
  3
txt
  4
extfont
  0
STYLE
  5
27
100
AcDbSymbolTableRecord
100
AcDbTextStyleTableRecord
  2
KANJITATE
 70
     4
 40
0.0
 41
1.0
 50
0.0
 71
     0
 42
0.0
  3
txt
  4
extfont
  0
ENDTAB
  0
TABLE
  2
VIEW
  5
5
100
AcDbSymbolTable
 70
     0
  0
ENDTAB
  0
TABLE
  2
UCS
  5
6
100
AcDbSymbolTable
 70
     0
  0
ENDTAB
  0
TABLE
  2
APPID
  5
8
100
AcDbSymbolTable
 70
     1
  0
APPID
  5
16
100
AcDbSymbolTableRecord
100
AcDbRegAppTableRecord
  2
ACAD
 70
     0
  0
ENDTAB
  0
TABLE
  2
DIMSTYLE
  5
9
100
AcDbSymbolTable
 70
     1
100
AcDbDimStyleTable
 71
     0
  0
DIMSTYLE
105
18
100
AcDbSymbolTableRecord
100
AcDbDimStyleTableRecord
  2
Standard
 70
     0
  3

  4

 40
1.0
 41
0.18
 42
0.0625
 43
0.38
 44
0.18
 45
0.0
 46
0.0
 47
0.0
 48
0.0
 71
     0
 72
     0
 73
     1
 74
     1
 75
     0
 76
     0
 77
     0
 78
     0
 79
     0
140
0.18
141
0.09
142
0.0
143
25.4
144
1.0
145
0.0
146
1.0
147
0.09
148
0.0
170
     0
171
     2
172
     0
173
     0
174
     0
175
     0
176
     0
177
     0
178
     0
179
     0
271
     4
272
     4
273
     2
274
     2
275
     0
276
     0
277
     2
278
    46
279
     0
280
     0
281
     0
282
     0
283
     1
284
     0
285
     0
286
     0
288
     0
340
17
341
0
342
0
343
0
344
0
371
    -2
372
    -2
  0
ENDTAB
  0
TABLE
  2
BLOCK_RECORD
  5
1
100
AcDbSymbolTable
 70
     0
  0
BLOCK_RECORD
  5
A
100
AcDbSymbolTableRecord
100
AcDbBlockTableRecord
  2
*MODEL_SPACE
340
20
  0
BLOCK_RECORD
  5
B
100
AcDbSymbolTableRecord
100
AcDbBlockTableRecord
  2
*PAPER_SPACE
340
21
  0
ENDTAB
  0
ENDSEC
  0
SECTION
  2
BLOCKS
  0
BLOCK
  5
D
100
AcDbEntity
  8
0
100
AcDbBlockBegin
  2
*MODEL_SPACE
 70
     0
 10
0.0
 20
0.0
 30
0.0
  3
*MODEL_SPACE
  1

  0
ENDBLK
  5
E
100
AcDbEntity
  8
0
100
AcDbBlockEnd
  0
BLOCK
  5
F
100
AcDbEntity
 67
     1
  8
0
100
AcDbBlockBegin
  2
*PAPER_SPACE
 70
     0
 10
0.0
 20
0.0
 30
0.0
  3
*PAPER_SPACE
  1

  0
ENDBLK
  5
10
100
AcDbEntity
 67
     1
  8
0
100
AcDbBlockEnd
  0
ENDSEC
  0
SECTION
  2
ENTITIES
  0
LINE
  5
17F
100
AcDbEntity
  8
EBENE_1
 62
   250
100
AcDbLine
 10
141.330564
 20
151.251577
 30
0.0
 11
141.330564
 21
163.251534
 31
0.0
  0
SPLINE
  5
17E
100
AcDbEntity
  8
EBENE_1
 62
   250
100
AcDbSpline
210
0.0
220
0.0
230
1.0
 70
     8
 71
     3
 72
     8
 73
     4
 74
     0
 42
0.00000001
 43
0.00000001
 40
0.0
 40
0.0
 40
0.0
 40
0.0
 40
1.0
 40
1.0
 40
1.0
 40
1.0
 10
141.83010253906249
 20
151.25123291015623
 30
0.0
 10
142.02612847222221
 20
155.25822347005206
 30
0.0
 10
141.85904134114583
 20
159.27468804253471
 30
0.0
 10
141.33021918402775
 20
163.25136176215275
 30
0.0
  0
SPLINE
  5
17D
100
AcDbEntity
  8
EBENE_1
 62
   250
100
AcDbSpline
210
0.0
220
0.0
230
1.0
 70
     8
 71
     3
 72
     8
 73
     4
 74
     0
 42
0.00000001
 43
0.00000001
 40
0.0
 40
0.0
 40
0.0
 40
0.0
 40
1.0
 40
1.0
 40
1.0
 40
1.0
 10
142.83021375868054
 20
151.25123291015623
 30
0.0
 10
143.02658420138889
 20
155.25822347005206
 30
0.0
 10
142.85915256076387
 20
159.27468804253471
 30
0.0
 10
142.32998589409721
 20
163.25136176215275
 30
0.0
  0
SPLINE
  5
17C
100
AcDbEntity
  8
EBENE_1
 62
   250
100
AcDbSpline
210
0.0
220
0.0
230
1.0
 70
     8
 71
     3
 72
     8
 73
     4
 74
     0
 42
0.00000001
 43
0.00000001
 40
0.0
 40
0.0
 40
0.0
 40
0.0
 40
1.0
 40
1.0
 40
1.0
 40
1.0
 10
143.82998046874999
 20
151.25123291015623
 30
0.0
 10
144.02635091145831
 20
155.25822347005206
 30
0.0
 10
143.85891927083333
 20
159.27468804253471
 30
0.0
 10
143.33009711371525
 20
163.25136176215275
 30
0.0
  0
SPLINE
  5
17B
100
AcDbEntity
  8
EBENE_1
 62
   250
100
AcDbSpline
210
0.0
220
0.0
230
1.0
 70
     8
 71
     3
 72
     8
 73
     4
 74
     0
 42
0.00000001
 43
0.00000001
 40
0.0
 40
0.0
 40
0.0
 40
0.0
 40
1.0
 40
1.0
 40
1.0
 40
1.0
 10
144.83009168836804
 20
151.25123291015623
 30
0.0
 10
145.02611762152776
 20
155.25822347005206
 30
0.0
 10
144.85903049045137
 20
159.27468804253471
 30
0.0
 10
144.33020833333333
 20
163.25136176215275
 30
0.0
  0
SPLINE
  5
17A
100
AcDbEntity
  8
EBENE_1
 62
   250
100
AcDbSpline
210
0.0
220
0.0
230
1.0
 70
     8
 71
     3
 72
     8
 73
     4
 74
     0
 42
0.00000001
 43
0.00000001
 40
0.0
 40
0.0
 40
0.0
 40
0.0
 40
1.0
 40
1.0
 40
1.0
 40
1.0
 10
145.83020290798609
 20
151.25123291015623
 30
0.0
 10
146.02657335069443
 20
155.25822347005206
 30
0.0
 10
145.85914171006942
 20
159.27468804253471
 30
0.0
 10
145.32997504340275
 20
163.25136176215275
 30
0.0
  0
SPLINE
  5
179
100
AcDbEntity
  8
EBENE_1
 62
   250
100
AcDbSpline
210
0.0
220
0.0
230
1.0
 70
     8
 71
     3
 72
     8
 73
     4
 74
     0
 42
0.00000001
 43
0.00000001
 40
0.0
 40
0.0
 40
0.0
 40
0.0
 40
1.0
 40
1.0
 40
1.0
 40
1.0
 10
146.82996961805554
 20
151.25123291015623
 30
0.0
 10
147.02634006076389
 20
155.25822347005206
 30
0.0
 10
146.85890842013887
 20
159.27468804253471
 30
0.0
 10
146.33008626302083
 20
163.25136176215275
 30
0.0
  0
SPLINE
  5
178
100
AcDbEntity
  8
EBENE_1
 62
   250
100
AcDbSpline
210
0.0
220
0.0
230
1.0
 70
     8
 71
     3
 72
     8
 73
     4
 74
     0
 42
0.00000001
 43
0.00000001
 40
0.0
 40
0.0
 40
0.0
 40
0.0
 40
1.0
 40
1.0
 40
1.0
 40
1.0
 10
147.83008083767359
 20
151.25123291015623
 30
0.0
 10
148.02645128038193
 20
155.25822347005206
 30
0.0
 10
147.85901963975692
 20
159.27468804253471
 30
0.0
 10
147.33019748263888
 20
163.25136176215275
 30
0.0
  0
SPLINE
  5
177
100
AcDbEntity
  8
EBENE_1
 62
   250
100
AcDbSpline
210
0.0
220
0.0
230
1.0
 70
     8
 71
     3
 72
     8
 73
     4
 74
     0
 42
0.00000001
 43
0.00000001
 40
0.0
 40
0.0
 40
0.0
 40
0.0
 40
1.0
 40
1.0
 40
1.0
 40
1.0
 10
148.83019205729164
 20
151.25123291015623
 30
0.0
 10
149.02656249999998
 20
155.25822347005206
 30
0.0
 10
148.859130859375
 20
159.27468804253471
 30
0.0
 10
148.32996419270833
 20
163.25136176215275
 30
0.0
  0
SPLINE
  5
176
100
AcDbEntity
  8
EBENE_1
 62
   250
100
AcDbSpline
210
0.0
220
0.0
230
1.0
 70
     8
 71
     3
 72
     8
 73
     4
 74
     0
 42
0.00000001
 43
0.00000001
 40
0.0
 40
0.0
 40
0.0
 40
0.0
 40
1.0
 40
1.0
 40
1.0
 40
1.0
 10
149.82995876736109
 20
151.25123291015623
 30
0.0
 10
150.02632921006943
 20
155.25822347005206
 30
0.0
 10
149.85889756944442
 20
159.27468804253471
 30
0.0
 10
149.33007541232638
 20
163.25136176215275
 30
0.0
  0
SPLINE
  5
175
100
AcDbEntity
  8
EBENE_1
 62
   250
100
AcDbSpline
210
0.0
220
0.0
230
1.0
 70
     8
 71
     3
 72
     8
 73
     4
 74
     0
 42
0.00000001
 43
0.00000001
 40
0.0
 40
0.0
 40
0.0
 40
0.0
 40
1.0
 40
1.0
 40
1.0
 40
1.0
 10
151.83018120659722
 20
151.25226643880208
 30
0.0
 10
151.89425998263889
 20
155.25891248914928
 30
0.0
 10
151.7275173611111
 20
159.26573079427081
 30
0.0
 10
151.32995334201388
 20
163.25291205512153
 30
0.0
  0
SPLINE
  5
174
100
AcDbEntity
  8
EBENE_1
 62
   250
100
AcDbSpline
210
0.0
220
0.0
230
1.0
 70
     8
 71
     3
 72
     8
 73
     4
 74
     0
 42
0.00000001
 43
0.00000001
 40
0.0
 40
0.0
 40
0.0
 40
0.0
 40
1.0
 40
1.0
 40
1.0
 40
1.0
 10
150.83006998697914
 20
151.25123291015623
 30
0.0
 10
151.02644042968748
 20
155.25822347005206
 30
0.0
 10
150.8590087890625
 20
159.27468804253471
 30
0.0
 10
150.33018663194443
 20
163.25136176215275
 30
0.0
  0
POLYLINE
  5
16B
100
AcDbEntity
  8
EBENE_1
 62
   250
100
AcDb2dPolyline
 66
     1
 10
0.0
 20
0.0
 30
0.0
 70
     1
  0
VERTEX
  5
16C
100
AcDbEntity
  8
EBENE_1
 62
   250
100
AcDbVertex
100
AcDb2dVertex
 10
140.83068
 20
151.751461
 30
0.0
  0
VERTEX
  5
16D
100
AcDbEntity
  8
EBENE_1
 62
   250
100
AcDbVertex
100
AcDb2dVertex
 10
140.83068
 20
162.751478
 30
0.0
  0
VERTEX
  5
16E
100
AcDbEntity
  8
EBENE_1
 62
   250
100
AcDbVertex
100
AcDb2dVertex
 10
141.330564
 20
163.251534
 30
0.0
  0
VERTEX
  5
16F
100
AcDbEntity
  8
EBENE_1
 62
   250
100
AcDbVertex
100
AcDb2dVertex
 10
151.830526
 20
163.251534
 30
0.0
  0
VERTEX
  5
170
100
AcDbEntity
  8
EBENE_1
 62
   250
100
AcDbVertex
100
AcDb2dVertex
 10
151.830526
 20
151.251577
 30
0.0
  0
VERTEX
  5
171
100
AcDbEntity
  8
EBENE_1
 62
   250
100
AcDbVertex
100
AcDb2dVertex
 10
141.330564
 20
151.251577
 30
0.0
  0
VERTEX
  5
172
100
AcDbEntity
  8
EBENE_1
 62
   250
100
AcDbVertex
100
AcDb2dVertex
 10
140.83068
 20
151.751461
 30
0.0
  0
SEQEND
  5
173
100
AcDbEntity
  8
EBENE_1
 62
   250
  0
LINE
  5
16A
100
AcDbEntity
  8
EBENE_1
 62
   250
100
AcDbLine
 10
151.830526
 20
148.251416
 30
0.0
 11
154.830515
 21
148.251416
 31
0.0
  0
POLYLINE
  5
164
100
AcDbEntity
  8
EBENE_1
 62
   250
100
AcDb2dPolyline
 66
     1
 10
0.0
 20
0.0
 30
0.0
 70
     1
  0
VERTEX
  5
165
100
AcDbEntity
  8
EBENE_1
 62
   250
100
AcDbVertex
100
AcDb2dVertex
 10
151.830526
 20
147.097309
 30
0.0
  0
VERTEX
  5
166
100
AcDbEntity
  8
EBENE_1
 62
   250
100
AcDbVertex
100
AcDb2dVertex
 10
154.830515
 20
147.097309
 30
0.0
  0
VERTEX
  5
167
100
AcDbEntity
  8
EBENE_1
 62
   250
100
AcDbVertex
100
AcDb2dVertex
 10
154.830515
 20
167.097466
 30
0.0
  0
VERTEX
  5
168
100
AcDbEntity
  8
EBENE_1
 62
   250
100
AcDbVertex
100
AcDb2dVertex
 10
151.830526
 20
167.097466
 30
0.0
  0
SEQEND
  5
169
100
AcDbEntity
  8
EBENE_1
 62
   250
  0
LINE
  5
163
100
AcDbEntity
  8
EBENE_1
 62
   250
100
AcDbLine
 10
151.830526
 20
155.751561
 30
0.0
 11
154.830515
 21
155.751561
 31
0.0
  0
LINE
  5
162
100
AcDbEntity
  8
EBENE_1
 62
   250
100
AcDbLine
 10
154.830515
 20
158.751378
 30
0.0
 11
151.830526
 21
158.751378
 31
0.0
  0
LINE
  5
161
100
AcDbEntity
  8
EBENE_1
 62
   250
100
AcDbLine
 10
151.830526
 20
166.251523
 30
0.0
 11
154.830515
 21
166.251523
 31
0.0
  0
LINE
  5
160
100
AcDbEntity
  8
EBENE_1
 62
   250
100
AcDbLine
 10
147.489361
 20
166.097527
 30
0.0
 11
147.27232
 21
179.872397
 31
0.0
  0
LINE
  5
15F
100
AcDbEntity
  8
EBENE_1
 62
   250
100
AcDbLine
 10
149.989811
 20
165.097416
 30
0.0
 11
149.707313
 21
181.069396
 31
0.0
  0
LINE
  5
15E
100
AcDbEntity
  8
EBENE_1
 62
   250
100
AcDbLine
 10
149.489583
 20
165.097416
 30
0.0
 11
149.207775
 21
181.069396
 31
0.0
  0
LINE
  5
15D
100
AcDbEntity
  8
EBENE_1
 62
   250
100
AcDbLine
 10
150.989578
 20
165.097416
 30
0.0
 11
150.707769
 21
181.069396
 31
0.0
  0
LINE
  5
15C
100
AcDbEntity
  8
EBENE_1
 62
   250
100
AcDbLine
 10
150.48935
 20
165.097416
 30
0.0
 11
150.207541
 21
181.069396
 31
0.0
  0
LINE
  5
15B
100
AcDbEntity
  8
EBENE_1
 62
   250
100
AcDbLine
 10
148.989355
 20
165.097416
 30
0.0
 11
148.707547
 21
181.069396
 31
0.0
  0
LINE
  5
15A
100
AcDbEntity
  8
EBENE_1
 62
   250
100
AcDbLine
 10
148.489817
 20
165.097416
 30
0.0
 11
148.207319
 21
181.069396
 31
0.0
  0
LINE
  5
159
100
AcDbEntity
  8
EBENE_1
 62
   250
100
AcDbLine
 10
147.989589
 20
165.097416
 30
0.0
 11
147.70778
 21
181.069396
 31
0.0
  0
POLYLINE
  5
145
100
AcDbEntity
  8
EBENE_1
 62
   250
100
AcDb2dPolyline
 66
     1
 10
0.0
 20
0.0
 30
0.0
  0
VERTEX
  5
146
100
AcDbEntity
  8
EBENE_1
 62
   250
100
AcDbVertex
100
AcDb2dVertex
 10
155.131616
 20
165.097416
 30
0.0
  0
VERTEX
  5
147
100
AcDbEntity
  8
EBENE_1
 62
   250
100
AcDbVertex
100
AcDb2dVertex
 10
155.089586
 20
165.097416
 30
0.0
  0
VERTEX
  5
148
100
AcDbEntity
  8
EBENE_1
 62
   250
100
AcDbVertex
100
AcDb2dVertex
 10
155.089586
 20
163.097366
 30
0.0
  0
VERTEX
  5
149
100
AcDbEntity
  8
EBENE_1
 62
   250
100
AcDbVertex
100
AcDb2dVertex
 10
152.089597
 20
163.097366
 30
0.0
  0
VERTEX
  5
14A
100
AcDbEntity
  8
EBENE_1
 62
   250
100
AcDbVertex
100
AcDb2dVertex
 10
152.089597
 20
165.097416
 30
0.0
  0
VERTEX
  5
14B
100
AcDbEntity
  8
EBENE_1
 62
   250
100
AcDbVertex
100
AcDb2dVertex
 10
147.989589
 20
165.097416
 30
0.0
  0
VERTEX
  5
14C
100
AcDbEntity
  8
EBENE_1
 62
   250
100
AcDbVertex
100
AcDb2dVertex
 10
147.489361
 20
166.097527
 30
0.0
  0
VERTEX
  5
14D
100
AcDbEntity
  8
EBENE_1
 62
   250
100
AcDbVertex
100
AcDb2dVertex
 10
147.489361
 20
166.247389
 30
0.0
  0
VERTEX
  5
14E
100
AcDbEntity
  8
EBENE_1
 62
   250
100
AcDbVertex
100
AcDb2dVertex
 10
142.989377
 20
166.247389
 30
0.0
  0
VERTEX
  5
14F
100
AcDbEntity
  8
EBENE_1
 62
   250
100
AcDbVertex
100
AcDb2dVertex
 10
142.989377
 20
179.84742
 30
0.0
  0
VERTEX
  5
150
100
AcDbEntity
  8
EBENE_1
 62
   250
100
AcDbVertex
100
AcDb2dVertex
 10
147.489361
 20
179.84742
 30
0.0
  0
VERTEX
  5
151
100
AcDbEntity
  8
EBENE_1
 62
   250
100
AcDbVertex
100
AcDb2dVertex
 10
147.489361
 20
179.997454
 30
0.0
  0
VERTEX
  5
152
100
AcDbEntity
  8
EBENE_1
 62
   250
100
AcDbVertex
100
AcDb2dVertex
 10
147.70778
 20
181.069396
 30
0.0
  0
VERTEX
  5
153
100
AcDbEntity
  8
EBENE_1
 62
   250
100
AcDbVertex
100
AcDb2dVertex
 10
152.089597
 20
181.097473
 30
0.0
  0
VERTEX
  5
154
100
AcDbEntity
  8
EBENE_1
 62
   250
100
AcDbVertex
100
AcDb2dVertex
 10
152.089597
 20
183.097523
 30
0.0
  0
VERTEX
  5
155
100
AcDbEntity
  8
EBENE_1
 62
   250
100
AcDbVertex
100
AcDb2dVertex
 10
155.089586
 20
183.097523
 30
0.0
  0
VERTEX
  5
156
100
AcDbEntity
  8
EBENE_1
 62
   250
100
AcDbVertex
100
AcDb2dVertex
 10
155.089586
 20
181.097473
 30
0.0
  0
VERTEX
  5
157
100
AcDbEntity
  8
EBENE_1
 62
   250
100
AcDbVertex
100
AcDb2dVertex
 10
155.127482
 20
181.097473
 30
0.0
  0
SEQEND
  5
158
100
AcDbEntity
  8
EBENE_1
 62
   250
  0
LINE
  5
144
100
AcDbEntity
  8
EBENE_1
 62
   250
100
AcDbLine
 10
151.489806
 20
165.097416
 30
0.0
 11
151.207652
 21
181.069396
 31
0.0
  0
LINE
  5
143
100
AcDbEntity
  8
EBENE_1
 62
   250
100
AcDbLine
 10
151.989345
 20
165.097416
 30
0.0
 11
151.707536
 21
181.069396
 31
0.0
  0
LINE
  5
142
100
AcDbEntity
  8
EBENE_1
 62
   250
100
AcDbLine
 10
154.989334
 20
185.597457
 30
0.0
 11
152.489572
 21
185.597457
 31
0.0
  0
POLYLINE
  5
137
100
AcDbEntity
  8
EBENE_1
 62
   250
100
AcDb2dPolyline
 66
     1
 10
0.0
 20
0.0
 30
0.0
 70
     1
  0
VERTEX
  5
138
100
AcDbEntity
  8
EBENE_1
 62
   250
100
AcDbVertex
100
AcDb2dVertex
 10
152.089597
 20
173.5975
 30
0.0
  0
VERTEX
  5
139
100
AcDbEntity
  8
EBENE_1
 62
   250
100
AcDbVertex
100
AcDb2dVertex
 10
152.089597
 20
183.097523
 30
0.0
  0
VERTEX
  5
13A
100
AcDbEntity
  8
EBENE_1
 62
   250
100
AcDbVertex
100
AcDb2dVertex
 10
155.089586
 20
183.097523
 30
0.0
  0
VERTEX
  5
13B
100
AcDbEntity
  8
EBENE_1
 62
   250
100
AcDbVertex
100
AcDb2dVertex
 10
155.089586
 20
163.097366
 30
0.0
  0
VERTEX
  5
13C
100
AcDbEntity
  8
EBENE_1
 62
   250
100
AcDbVertex
100
AcDb2dVertex
 10
152.089597
 20
163.097366
 30
0.0
  0
VERTEX
  5
13D
100
AcDbEntity
  8
EBENE_1
 62
   250
100
AcDbVertex
100
AcDb2dVertex
 10
152.089597
 20
172.597389
 30
0.0
  0
VERTEX
  5
13E
100
AcDbEntity
  8
EBENE_1
 62
   250
100
AcDbVertex
100
AcDb2dVertex
 10
152.9898
 20
172.597389
 30
0.0
  0
VERTEX
  5
13F
100
AcDbEntity
  8
EBENE_1
 62
   250
100
AcDbVertex
100
AcDb2dVertex
 10
152.9898
 20
173.5975
 30
0.0
  0
VERTEX
  5
140
100
AcDbEntity
  8
EBENE_1
 62
   250
100
AcDbVertex
100
AcDb2dVertex
 10
152.089597
 20
173.5975
 30
0.0
  0
SEQEND
  5
141
100
AcDbEntity
  8
EBENE_1
 62
   250
  0
LINE
  5
136
100
AcDbEntity
  8
EBENE_1
 62
   250
100
AcDbLine
 10
146.989478
 20
182.097412
 30
0.0
 11
146.989478
 21
189.097502
 31
0.0
  0
LINE
  5
135
100
AcDbEntity
  8
EBENE_1
 62
   250
100
AcDbLine
 10
147.489361
 20
189.597385
 30
0.0
 11
147.489361
 21
181.597356
 31
0.0
  0
LINE
  5
134
100
AcDbEntity
  8
EBENE_1
 62
   250
100
AcDbLine
 10
148.989355
 20
189.097502
 30
0.0
 11
148.989355
 21
182.097412
 31
0.0
  0
POLYLINE
  5
124
100
AcDbEntity
  8
EBENE_1
 62
   250
100
AcDb2dPolyline
 66
     1
 10
0.0
 20
0.0
 30
0.0
  0
VERTEX
  5
125
100
AcDbEntity
  8
EBENE_1
 62
   250
100
AcDbVertex
100
AcDb2dVertex
 10
152.489572
 20
181.597356
 30
0.0
  0
VERTEX
  5
126
100
AcDbEntity
  8
EBENE_1
 62
   250
100
AcDbVertex
100
AcDb2dVertex
 10
149.489583
 20
181.597356
 30
0.0
  0
VERTEX
  5
127
100
AcDbEntity
  8
EBENE_1
 62
   250
100
AcDbVertex
100
AcDb2dVertex
 10
148.989355
 20
182.097412
 30
0.0
  0
VERTEX
  5
128
100
AcDbEntity
  8
EBENE_1
 62
   250
100
AcDbVertex
100
AcDb2dVertex
 10
148.489817
 20
181.597356
 30
0.0
  0
VERTEX
  5
129
100
AcDbEntity
  8
EBENE_1
 62
   250
100
AcDbVertex
100
AcDb2dVertex
 10
147.489361
 20
181.597356
 30
0.0
  0
VERTEX
  5
12A
100
AcDbEntity
  8
EBENE_1
 62
   250
100
AcDbVertex
100
AcDb2dVertex
 10
146.989478
 20
182.097412
 30
0.0
  0
VERTEX
  5
12B
100
AcDbEntity
  8
EBENE_1
 62
   250
100
AcDbVertex
100
AcDb2dVertex
 10
145.989366
 20
182.097412
 30
0.0
  0
VERTEX
  5
12C
100
AcDbEntity
  8
EBENE_1
 62
   250
100
AcDbVertex
100
AcDb2dVertex
 10
145.989366
 20
189.097502
 30
0.0
  0
VERTEX
  5
12D
100
AcDbEntity
  8
EBENE_1
 62
   250
100
AcDbVertex
100
AcDb2dVertex
 10
146.989478
 20
189.097502
 30
0.0
  0
VERTEX
  5
12E
100
AcDbEntity
  8
EBENE_1
 62
   250
100
AcDbVertex
100
AcDb2dVertex
 10
147.489361
 20
189.597385
 30
0.0
  0
VERTEX
  5
12F
100
AcDbEntity
  8
EBENE_1
 62
   250
100
AcDbVertex
100
AcDb2dVertex
 10
148.489817
 20
189.597385
 30
0.0
  0
VERTEX
  5
130
100
AcDbEntity
  8
EBENE_1
 62
   250
100
AcDbVertex
100
AcDb2dVertex
 10
148.989355
 20
189.097502
 30
0.0
  0
VERTEX
  5
131
100
AcDbEntity
  8
EBENE_1
 62
   250
100
AcDbVertex
100
AcDb2dVertex
 10
149.489583
 20
189.597385
 30
0.0
  0
VERTEX
  5
132
100
AcDbEntity
  8
EBENE_1
 62
   250
100
AcDbVertex
100
AcDb2dVertex
 10
152.489572
 20
189.597385
 30
0.0
  0
SEQEND
  5
133
100
AcDbEntity
  8
EBENE_1
 62
   250
  0
LINE
  5
123
100
AcDbEntity
  8
EBENE_1
 62
   250
100
AcDbLine
 10
150.989578
 20
181.597356
 30
0.0
 11
150.989578
 21
189.597385
 31
0.0
  0
LINE
  5
122
100
AcDbEntity
  8
EBENE_1
 62
   250
100
AcDbLine
 10
151.489806
 20
181.597356
 30
0.0
 11
151.489806
 21
189.597385
 31
0.0
  0
LINE
  5
121
100
AcDbEntity
  8
EBENE_1
 62
   250
100
AcDbLine
 10
151.989345
 20
181.597356
 30
0.0
 11
151.989345
 21
189.597385
 31
0.0
  0
POLYLINE
  5
11B
100
AcDbEntity
  8
EBENE_1
 62
   250
100
AcDb2dPolyline
 66
     1
 10
0.0
 20
0.0
 30
0.0
 70
     1
  0
VERTEX
  5
11C
100
AcDbEntity
  8
EBENE_1
 62
   250
100
AcDbVertex
100
AcDb2dVertex
 10
152.489572
 20
180.597418
 30
0.0
  0
VERTEX
  5
11D
100
AcDbEntity
  8
EBENE_1
 62
   250
100
AcDbVertex
100
AcDb2dVertex
 10
154.989334
 20
180.597418
 30
0.0
  0
VERTEX
  5
11E
100
AcDbEntity
  8
EBENE_1
 62
   250
100
AcDbVertex
100
AcDb2dVertex
 10
154.989334
 20
190.597496
 30
0.0
  0
VERTEX
  5
11F
100
AcDbEntity
  8
EBENE_1
 62
   250
100
AcDbVertex
100
AcDb2dVertex
 10
152.489572
 20
190.597496
 30
0.0
  0
SEQEND
  5
120
100
AcDbEntity
  8
EBENE_1
 62
   250
  0
POLYLINE
  5
115
100
AcDbEntity
  8
EBENE_1
 62
   250
100
AcDb2dPolyline
 66
     1
 10
0.0
 20
0.0
 30
0.0
 70
     1
  0
VERTEX
  5
116
100
AcDbEntity
  8
EBENE_1
 62
   250
100
AcDbVertex
100
AcDb2dVertex
 10
-25.510071
 20
116.59719
 30
0.0
  0
VERTEX
  5
117
100
AcDbEntity
  8
EBENE_1
 62
   250
100
AcDbVertex
100
AcDb2dVertex
 10
-4.010091
 20
116.59719
 30
0.0
  0
VERTEX
  5
118
100
AcDbEntity
  8
EBENE_1
 62
   250
100
AcDbVertex
100
AcDb2dVertex
 10
-4.010091
 20
124.59739
 30
0.0
  0
VERTEX
  5
119
100
AcDbEntity
  8
EBENE_1
 62
   250
100
AcDbVertex
100
AcDb2dVertex
 10
-25.510071
 20
124.59739
 30
0.0
  0
SEQEND
  5
11A
100
AcDbEntity
  8
EBENE_1
 62
   250
  0
POLYLINE
  5
10F
100
AcDbEntity
  8
EBENE_1
 62
   250
100
AcDb2dPolyline
 66
     1
 10
0.0
 20
0.0
 30
0.0
 70
     1
  0
VERTEX
  5
110
100
AcDbEntity
  8
EBENE_1
 62
   250
100
AcDbVertex
100
AcDb2dVertex
 10
-4.010091
 20
100.597477
 30
0.0
  0
VERTEX
  5
111
100
AcDbEntity
  8
EBENE_1
 62
   250
100
AcDbVertex
100
AcDb2dVertex
 10
-1.510158
 20
100.597477
 30
0.0
  0
VERTEX
  5
112
100
AcDbEntity
  8
EBENE_1
 62
   250
100
AcDbVertex
100
AcDb2dVertex
 10
-1.510158
 20
140.597103
 30
0.0
  0
VERTEX
  5
113
100
AcDbEntity
  8
EBENE_1
 62
   250
100
AcDbVertex
100
AcDb2dVertex
 10
-4.010091
 20
140.597103
 30
0.0
  0
SEQEND
  5
114
100
AcDbEntity
  8
EBENE_1
 62
   250
  0
POLYLINE
  5
109
100
AcDbEntity
  8
EBENE_1
 62
   250
100
AcDb2dPolyline
 66
     1
 10
0.0
 20
0.0
 30
0.0
  0
VERTEX
  5
10A
100
AcDbEntity
  8
EBENE_1
 62
   250
100
AcDbVertex
100
AcDb2dVertex
 10
5.489932
 20
93.097504
 30
0.0
  0
VERTEX
  5
10B
100
AcDbEntity
  8
EBENE_1
 62
   250
100
AcDbVertex
100
AcDb2dVertex
 10
-1.510158
 20
93.097504
 30
0.0
  0
VERTEX
  5
10C
100
AcDbEntity
  8
EBENE_1
 62
   250
100
AcDbVertex
100
AcDb2dVertex
 10
-1.510158
 20
148.097765
 30
0.0
  0
VERTEX
  5
10D
100
AcDbEntity
  8
EBENE_1
 62
   250
100
AcDbVertex
100
AcDb2dVertex
 10
5.489932
 20
148.097765
 30
0.0
  0
SEQEND
  5
10E
100
AcDbEntity
  8
EBENE_1
 62
   250
  0
LINE
  5
108
100
AcDbEntity
  8
EBENE_1
 62
   250
100
AcDbLine
 10
5.489932
 20
93.097504
 30
0.0
 11
5.489932
 21
148.097765
 31
0.0
  0
LINE
  5
107
100
AcDbEntity
  8
EBENE_1
 62
   250
100
AcDbLine
 10
155.057891
 20
99.597711
 30
0.0
 11
111.891878
 21
99.597711
 31
0.0
  0
POLYLINE
  5
102
100
AcDbEntity
  8
EBENE_1
 62
   250
100
AcDb2dPolyline
 66
     1
 10
0.0
 20
0.0
 30
0.0
  0
VERTEX
  5
103
100
AcDbEntity
  8
EBENE_1
 62
   250
100
AcDbVertex
100
AcDb2dVertex
 10
5.507157
 20
102.097472
 30
0.0
  0
VERTEX
  5
104
100
AcDbEntity
  8
EBENE_1
 62
   250
100
AcDbVertex
100
AcDb2dVertex
 10
108.276251
 20
102.097472
 30
0.0
  0
VERTEX
  5
105
100
AcDbEntity
  8
EBENE_1
 62
   250
100
AcDbVertex
100
AcDb2dVertex
 10
117.490158
 20
95.597266
 30
0.0
  0
SEQEND
  5
106
100
AcDbEntity
  8
EBENE_1
 62
   250
  0
POLYLINE
  5
FD
100
AcDbEntity
  8
EBENE_1
 62
   250
100
AcDb2dPolyline
 66
     1
 10
0.0
 20
0.0
 30
0.0
  0
VERTEX
  5
FE
100
AcDbEntity
  8
EBENE_1
 62
   250
100
AcDbVertex
100
AcDb2dVertex
 10
5.507157
 20
139.097108
 30
0.0
  0
VERTEX
  5
FF
100
AcDbEntity
  8
EBENE_1
 62
   250
100
AcDbVertex
100
AcDb2dVertex
 10
108.276251
 20
139.097108
 30
0.0
  0
VERTEX
  5
100
100
AcDbEntity
  8
EBENE_1
 62
   250
100
AcDbVertex
100
AcDb2dVertex
 10
117.490158
 20
145.597314
 30
0.0
  0
SEQEND
  5
101
100
AcDbEntity
  8
EBENE_1
 62
   250
  0
LINE
  5
FC
100
AcDbEntity
  8
EBENE_1
 62
   250
100
AcDbLine
 10
132.489415
 20
95.597266
 30
0.0
 11
132.489415
 21
145.597314
 31
0.0
  0
POLYLINE
  5
F6
100
AcDbEntity
  8
EBENE_1
 62
   250
100
AcDb2dPolyline
 66
     1
 10
0.0
 20
0.0
 30
0.0
  0
VERTEX
  5
F7
100
AcDbEntity
  8
EBENE_1
 62
   250
100
AcDbVertex
100
AcDb2dVertex
 10
5.433777
 20
145.597314
 30
0.0
  0
VERTEX
  5
F8
100
AcDbEntity
  8
EBENE_1
 62
   250
100
AcDbVertex
100
AcDb2dVertex
 10
154.975209
 20
145.597314
 30
0.0
  0
VERTEX
  5
F9
100
AcDbEntity
  8
EBENE_1
 62
   250
100
AcDbVertex
100
AcDb2dVertex
 10
154.975209
 20
95.597266
 30
0.0
  0
VERTEX
  5
FA
100
AcDbEntity
  8
EBENE_1
 62
   250
100
AcDbVertex
100
AcDb2dVertex
 10
5.433777
 20
95.597266
 30
0.0
  0
SEQEND
  5
FB
100
AcDbEntity
  8
EBENE_1
 62
   250
  0
LINE
  5
F5
100
AcDbEntity
  8
EBENE_1
 62
   250
100
AcDbLine
 10
154.906651
 20
141.597559
 30
0.0
 11
112.291509
 21
141.597559
 31
0.0
  0
POLYLINE
  5
EF
100
AcDbEntity
  8
EBENE_1
 62
   250
100
AcDb2dPolyline
 66
     1
 10
0.0
 20
0.0
 30
0.0
 70
     1
  0
VERTEX
  5
F0
100
AcDbEntity
  8
EBENE_1
 62
   250
100
AcDbVertex
100
AcDb2dVertex
 10
154.989334
 20
95.597266
 30
0.0
  0
VERTEX
  5
F1
100
AcDbEntity
  8
EBENE_1
 62
   250
100
AcDbVertex
100
AcDb2dVertex
 10
159.989545
 20
95.597266
 30
0.0
  0
VERTEX
  5
F2
100
AcDbEntity
  8
EBENE_1
 62
   250
100
AcDbVertex
100
AcDb2dVertex
 10
159.989545
 20
195.597536
 30
0.0
  0
VERTEX
  5
F3
100
AcDbEntity
  8
EBENE_1
 62
   250
100
AcDbVertex
100
AcDb2dVertex
 10
154.989334
 20
195.597536
 30
0.0
  0
SEQEND
  5
F4
100
AcDbEntity
  8
EBENE_1
 62
   250
  0
POLYLINE
  5
E9
100
AcDbEntity
  8
EBENE_1
 62
   250
100
AcDb2dPolyline
 66
     1
 10
0.0
 20
0.0
 30
0.0
 70
     1
  0
VERTEX
  5
EA
100
AcDbEntity
  8
EBENE_1
 62
   250
100
AcDbVertex
100
AcDb2dVertex
 10
159.989545
 20
95.597266
 30
0.0
  0
VERTEX
  5
EB
100
AcDbEntity
  8
EBENE_1
 62
   250
100
AcDbVertex
100
AcDb2dVertex
 10
224.489312
 20
95.597266
 30
0.0
  0
VERTEX
  5
EC
100
AcDbEntity
  8
EBENE_1
 62
   250
100
AcDbVertex
100
AcDb2dVertex
 10
224.489312
 20
195.597536
 30
0.0
  0
VERTEX
  5
ED
100
AcDbEntity
  8
EBENE_1
 62
   250
100
AcDbVertex
100
AcDb2dVertex
 10
159.989545
 20
195.597536
 30
0.0
  0
SEQEND
  5
EE
100
AcDbEntity
  8
EBENE_1
 62
   250
  0
POLYLINE
  5
E3
100
AcDbEntity
  8
EBENE_1
 62
   250
100
AcDb2dPolyline
 66
     1
 10
0.0
 20
0.0
 30
0.0
 70
     1
  0
VERTEX
  5
E4
100
AcDbEntity
  8
EBENE_1
 62
   250
100
AcDbVertex
100
AcDb2dVertex
 10
224.39974
 20
95.597266
 30
0.0
  0
VERTEX
  5
E5
100
AcDbEntity
  8
EBENE_1
 62
   250
100
AcDbVertex
100
AcDb2dVertex
 10
249.489336
 20
95.597266
 30
0.0
  0
VERTEX
  5
E6
100
AcDbEntity
  8
EBENE_1
 62
   250
100
AcDbVertex
100
AcDb2dVertex
 10
249.489336
 20
195.597536
 30
0.0
  0
VERTEX
  5
E7
100
AcDbEntity
  8
EBENE_1
 62
   250
100
AcDbVertex
100
AcDb2dVertex
 10
224.39974
 20
195.597536
 30
0.0
  0
SEQEND
  5
E8
100
AcDbEntity
  8
EBENE_1
 62
   250
  0
MTEXT
  5
E2
100
AcDbEntity
  8
EBENE_1
 62
   250
100
AcDbMText
 10
80.368221
 20
205.330677
 30
0.0
 40
3.674769
 41
0.0
 71
     1
 72
     2
  1
\fMyriad Roman|b0|i0; 156.5mm  
  7
STD
210
0.0
220
0.0
230
1.0
 11
1.000001
 21
0.0
 31
0.0
 73
     1
 44
1.0
  0
POLYLINE
  5
DD
100
AcDbEntity
  8
EBENE_1
 62
   250
100
AcDb2dPolyline
 66
     1
 10
0.0
 20
0.0
 30
0.0
 70
     1
  0
VERTEX
  5
DE
100
AcDbEntity
  8
EBENE_1
 62
   250
100
AcDbVertex
100
AcDb2dVertex
 10
154.989334
 20
203.097508
 30
0.0
  0
VERTEX
  5
DF
100
AcDbEntity
  8
EBENE_1
 62
   250
100
AcDbVertex
100
AcDb2dVertex
 10
150.988544
 20
202.100498
 30
0.0
  0
VERTEX
  5
E0
100
AcDbEntity
  8
EBENE_1
 62
   250
100
AcDbVertex
100
AcDb2dVertex
 10
150.988544
 20
204.094519
 30
0.0
  0
SEQEND
  5
E1
100
AcDbEntity
  8
EBENE_1
 62
   250
  0
HATCH
  5
DC
100
AcDbEntity
  8
EBENE_1
 62
   250
100
AcDbHatch
 10
0.0
 20
0.0
 30
0.0
210
0.0
220
0.0
230
1.0
  2
SOLID
 70
     1
 71
     0
 91
        1
 92
        3
 72
     0
 73
     1
 93
        3
 10
154.9893337673611
 20
203.09750840928817
 10
150.98854437934025
 20
202.10049777560761
 10
150.98854437934025
 20
204.09451904296873
 97
        0
 75
     0
 76
     1
 98
        1
 10
0.0
 20
0.0
  0
LINE
  5
DB
100
AcDbEntity
  8
EBENE_1
 62
   250
100
AcDbLine
 10
103.716667
 20
203.097508
 30
0.0
 11
154.989334
 21
203.097508
 31
0.0
  0
POLYLINE
  5
D6
100
AcDbEntity
  8
EBENE_1
 62
   250
100
AcDb2dPolyline
 66
     1
 10
0.0
 20
0.0
 30
0.0
 70
     1
  0
VERTEX
  5
D7
100
AcDbEntity
  8
EBENE_1
 62
   250
100
AcDbVertex
100
AcDb2dVertex
 10
-1.510158
 20
203.097508
 30
0.0
  0
VERTEX
  5
D8
100
AcDbEntity
  8
EBENE_1
 62
   250
100
AcDbVertex
100
AcDb2dVertex
 10
2.490804
 20
204.094519
 30
0.0
  0
VERTEX
  5
D9
100
AcDbEntity
  8
EBENE_1
 62
   250
100
AcDbVertex
100
AcDb2dVertex
 10
2.490804
 20
202.100498
 30
0.0
  0
SEQEND
  5
DA
100
AcDbEntity
  8
EBENE_1
 62
   250
  0
HATCH
  5
D5
100
AcDbEntity
  8
EBENE_1
 62
   250
100
AcDbHatch
 10
0.0
 20
0.0
 30
0.0
210
0.0
220
0.0
230
1.0
  2
SOLID
 70
     1
 71
     0
 91
        1
 92
        3
 72
     0
 73
     1
 93
        3
 10
-1.5101576063368054
 20
203.09750840928817
 10
2.490804036458333
 20
204.09451904296873
 10
2.490804036458333
 20
202.10049777560761
 97
        0
 75
     0
 76
     1
 98
        1
 10
0.0
 20
0.0
  0
LINE
  5
D4
100
AcDbEntity
  8
EBENE_1
 62
   250
100
AcDbLine
 10
79.343477
 20
203.097508
 30
0.0
 11
-1.510158
 21
203.097508
 31
0.0
  0
LINE
  5
D3
100
AcDbEntity
  8
EBENE_1
 62
   250
100
AcDbLine
 10
-1.510158
 20
147.642323
 30
0.0
 11
-1.510158
 21
211.297008
 31
0.0
  0
MTEXT
  5
D2
100
AcDbEntity
  8
EBENE_1
 62
   250
100
AcDbMText
 10
-57.076103
 20
123.0239
 30
0.0
 40
3.674769
 41
0.0
 71
     1
 72
     2
  1
\fMyriad Roman|b0|i0; 55.0 
  7
STD
210
0.0
220
0.0
230
1.0
 11
1.000001
 21
0.0
 31
0.0
 73
     1
 44
1.0
  0
POLYLINE
  5
CD
100
AcDbEntity
  8
EBENE_1
 62
   250
100
AcDb2dPolyline
 66
     1
 10
0.0
 20
0.0
 30
0.0
 70
     1
  0
VERTEX
  5
CE
100
AcDbEntity
  8
EBENE_1
 62
   250
100
AcDbVertex
100
AcDb2dVertex
 10
-50.510095
 20
93.097504
 30
0.0
  0
VERTEX
  5
CF
100
AcDbEntity
  8
EBENE_1
 62
   250
100
AcDbVertex
100
AcDb2dVertex
 10
-51.507106
 20
97.098638
 30
0.0
  0
VERTEX
  5
D0
100
AcDbEntity
  8
EBENE_1
 62
   250
100
AcDbVertex
100
AcDb2dVertex
 10
-49.513085
 20
97.098638
 30
0.0
  0
SEQEND
  5
D1
100
AcDbEntity
  8
EBENE_1
 62
   250
  0
HATCH
  5
CC
100
AcDbEntity
  8
EBENE_1
 62
   250
100
AcDbHatch
 10
0.0
 20
0.0
 30
0.0
210
0.0
220
0.0
230
1.0
  2
SOLID
 70
     1
 71
     0
 91
        1
 92
        3
 72
     0
 73
     1
 93
        3
 10
-50.510095214843744
 20
93.097504340277766
 10
-51.507105848524304
 20
97.098638237847211
 10
-49.513084581163191
 20
97.098638237847211
 97
        0
 75
     0
 76
     1
 98
        1
 10
0.0
 20
0.0
  0
LINE
  5
CB
100
AcDbEntity
  8
EBENE_1
 62
   250
100
AcDbLine
 10
-50.510095
 20
118.597412
 30
0.0
 11
-50.510095
 21
93.097504
 31
0.0
  0
POLYLINE
  5
C6
100
AcDbEntity
  8
EBENE_1
 62
   250
100
AcDb2dPolyline
 66
     1
 10
0.0
 20
0.0
 30
0.0
 70
     1
  0
VERTEX
  5
C7
100
AcDbEntity
  8
EBENE_1
 62
   250
100
AcDbVertex
100
AcDb2dVertex
 10
-50.510095
 20
148.097765
 30
0.0
  0
VERTEX
  5
C8
100
AcDbEntity
  8
EBENE_1
 62
   250
100
AcDbVertex
100
AcDb2dVertex
 10
-49.513085
 20
144.096631
 30
0.0
  0
VERTEX
  5
C9
100
AcDbEntity
  8
EBENE_1
 62
   250
100
AcDbVertex
100
AcDb2dVertex
 10
-51.507106
 20
144.096631
 30
0.0
  0
SEQEND
  5
CA
100
AcDbEntity
  8
EBENE_1
 62
   250
  0
HATCH
  5
C5
100
AcDbEntity
  8
EBENE_1
 62
   250
100
AcDbHatch
 10
0.0
 20
0.0
 30
0.0
210
0.0
220
0.0
230
1.0
  2
SOLID
 70
     1
 71
     0
 91
        1
 92
        3
 72
     0
 73
     1
 93
        3
 10
-50.510095214843744
 20
148.09776475694443
 10
-49.513084581163191
 20
144.09663085937498
 10
-51.507105848524304
 20
144.09663085937498
 97
        0
 75
     0
 76
     1
 98
        1
 10
0.0
 20
0.0
  0
LINE
  5
C4
100
AcDbEntity
  8
EBENE_1
 62
   250
100
AcDbLine
 10
-50.510095
 20
122.597168
 30
0.0
 11
-50.510095
 21
148.097765
 31
0.0
  0
LINE
  5
C3
100
AcDbEntity
  8
EBENE_1
 62
   250
100
AcDbLine
 10
-1.510158
 20
93.097504
 30
0.0
 11
-50.510095
 21
93.097504
 31
0.0
  0
LINE
  5
C2
100
AcDbEntity
  8
EBENE_1
 62
   250
100
AcDbLine
 10
-1.510158
 20
148.097765
 30
0.0
 11
-50.510095
 21
148.097765
 31
0.0
  0
MTEXT
  5
C1
100
AcDbEntity
  8
EBENE_1
 62
   250
100
AcDbMText
 10
-46.548235
 20
122.936051
 30
0.0
 40
3.674769
 41
0.0
 71
     1
 72
     2
  1
\fMyriad Roman|b0|i0; 40j6 
  7
STD
210
0.0
220
0.0
230
1.0
 11
1.000001
 21
0.0
 31
0.0
 73
     1
 44
1.0
  0
POLYLINE
  5
BC
100
AcDbEntity
  8
EBENE_1
 62
   250
100
AcDb2dPolyline
 66
     1
 10
0.0
 20
0.0
 30
0.0
 70
     1
  0
VERTEX
  5
BD
100
AcDbEntity
  8
EBENE_1
 62
   250
100
AcDbVertex
100
AcDb2dVertex
 10
-40.510189
 20
140.597103
 30
0.0
  0
VERTEX
  5
BE
100
AcDbEntity
  8
EBENE_1
 62
   250
100
AcDbVertex
100
AcDb2dVertex
 10
-39.513178
 20
136.596658
 30
0.0
  0
VERTEX
  5
BF
100
AcDbEntity
  8
EBENE_1
 62
   250
100
AcDbVertex
100
AcDb2dVertex
 10
-41.507199
 20
136.596658
 30
0.0
  0
SEQEND
  5
C0
100
AcDbEntity
  8
EBENE_1
 62
   250
  0
HATCH
  5
BB
100
AcDbEntity
  8
EBENE_1
 62
   250
100
AcDbHatch
 10
0.0
 20
0.0
 30
0.0
210
0.0
220
0.0
230
1.0
  2
SOLID
 70
     1
 71
     0
 91
        1
 92
        3
 72
     0
 73
     1
 93
        3
 10
-40.510188802083327
 20
140.59710286458332
 10
-39.513178168402774
 20
136.5966579861111
 10
-41.507199435763887
 20
136.5966579861111
 97
        0
 75
     0
 76
     1
 98
        1
 10
0.0
 20
0.0
  0
LINE
  5
BA
100
AcDbEntity
  8
EBENE_1
 62
   250
100
AcDbLine
 10
-40.510189
 20
122.597168
 30
0.0
 11
-40.510189
 21
140.597103
 31
0.0
  0
POLYLINE
  5
B5
100
AcDbEntity
  8
EBENE_1
 62
   250
100
AcDb2dPolyline
 66
     1
 10
0.0
 20
0.0
 30
0.0
 70
     1
  0
VERTEX
  5
B6
100
AcDbEntity
  8
EBENE_1
 62
   250
100
AcDbVertex
100
AcDb2dVertex
 10
-40.510189
 20
100.597477
 30
0.0
  0
VERTEX
  5
B7
100
AcDbEntity
  8
EBENE_1
 62
   250
100
AcDbVertex
100
AcDb2dVertex
 10
-41.507199
 20
104.598611
 30
0.0
  0
VERTEX
  5
B8
100
AcDbEntity
  8
EBENE_1
 62
   250
100
AcDbVertex
100
AcDb2dVertex
 10
-39.513178
 20
104.598611
 30
0.0
  0
SEQEND
  5
B9
100
AcDbEntity
  8
EBENE_1
 62
   250
  0
HATCH
  5
B4
100
AcDbEntity
  8
EBENE_1
 62
   250
100
AcDbHatch
 10
0.0
 20
0.0
 30
0.0
210
0.0
220
0.0
230
1.0
  2
SOLID
 70
     1
 71
     0
 91
        1
 92
        3
 72
     0
 73
     1
 93
        3
 10
-40.510188802083327
 20
100.59747721354165
 10
-41.507199435763887
 20
104.5986111111111
 10
-39.513178168402774
 20
104.5986111111111
 97
        0
 75
     0
 76
     1
 98
        1
 10
0.0
 20
0.0
  0
LINE
  5
B3
100
AcDbEntity
  8
EBENE_1
 62
   250
100
AcDbLine
 10
-40.510189
 20
118.597412
 30
0.0
 11
-40.510189
 21
100.597477
 31
0.0
  0
LINE
  5
B2
100
AcDbEntity
  8
EBENE_1
 62
   250
100
AcDbLine
 10
-4.010091
 20
140.597103
 30
0.0
 11
-40.510189
 21
140.597103
 31
0.0
  0
LINE
  5
B1
100
AcDbEntity
  8
EBENE_1
 62
   250
100
AcDbLine
 10
-4.010091
 20
100.597477
 30
0.0
 11
-40.510189
 21
100.597477
 31
0.0
  0
MTEXT
  5
B0
100
AcDbEntity
  8
EBENE_1
 62
   250
100
AcDbMText
 10
-35.229546
 20
122.936051
 30
0.0
 40
3.674769
 41
0.0
 71
     1
 72
     2
  1
\fMyriad Roman|b0|i0; 8k6 
  7
STD
210
0.0
220
0.0
230
1.0
 11
1.000001
 21
0.0
 31
0.0
 73
     1
 44
1.0
  0
POLYLINE
  5
AB
100
AcDbEntity
  8
EBENE_1
 62
   250
100
AcDb2dPolyline
 66
     1
 10
0.0
 20
0.0
 30
0.0
 70
     1
  0
VERTEX
  5
AC
100
AcDbEntity
  8
EBENE_1
 62
   250
100
AcDbVertex
100
AcDb2dVertex
 10
-32.010105
 20
124.59739
 30
0.0
  0
VERTEX
  5
AD
100
AcDbEntity
  8
EBENE_1
 62
   250
100
AcDbVertex
100
AcDb2dVertex
 10
-33.007115
 20
128.598524
 30
0.0
  0
VERTEX
  5
AE
100
AcDbEntity
  8
EBENE_1
 62
   250
100
AcDbVertex
100
AcDb2dVertex
 10
-31.013094
 20
128.598524
 30
0.0
  0
SEQEND
  5
AF
100
AcDbEntity
  8
EBENE_1
 62
   250
  0
HATCH
  5
AA
100
AcDbEntity
  8
EBENE_1
 62
   250
100
AcDbHatch
 10
0.0
 20
0.0
 30
0.0
210
0.0
220
0.0
230
1.0
  2
SOLID
 70
     1
 71
     0
 91
        1
 92
        3
 72
     0
 73
     1
 93
        3
 10
-32.010104709201386
 20
124.5973904079861
 10
-33.007115342881939
 20
128.59852430555554
 10
-31.013094075520829
 20
128.59852430555554
 97
        0
 75
     0
 76
     1
 98
        1
 10
0.0
 20
0.0
  0
LINE
  5
A9
100
AcDbEntity
  8
EBENE_1
 62
   250
100
AcDbLine
 10
-32.010105
 20
132.597591
 30
0.0
 11
-32.010105
 21
124.59739
 31
0.0
  0
POLYLINE
  5
A4
100
AcDbEntity
  8
EBENE_1
 62
   250
100
AcDb2dPolyline
 66
     1
 10
0.0
 20
0.0
 30
0.0
 70
     1
  0
VERTEX
  5
A5
100
AcDbEntity
  8
EBENE_1
 62
   250
100
AcDbVertex
100
AcDb2dVertex
 10
-32.010105
 20
116.59719
 30
0.0
  0
VERTEX
  5
A6
100
AcDbEntity
  8
EBENE_1
 62
   250
100
AcDbVertex
100
AcDb2dVertex
 10
-31.013094
 20
112.596745
 30
0.0
  0
VERTEX
  5
A7
100
AcDbEntity
  8
EBENE_1
 62
   250
100
AcDbVertex
100
AcDb2dVertex
 10
-33.007115
 20
112.596745
 30
0.0
  0
SEQEND
  5
A8
100
AcDbEntity
  8
EBENE_1
 62
   250
  0
HATCH
  5
A3
100
AcDbEntity
  8
EBENE_1
 62
   250
100
AcDbHatch
 10
0.0
 20
0.0
 30
0.0
210
0.0
220
0.0
230
1.0
  2
SOLID
 70
     1
 71
     0
 91
        1
 92
        3
 72
     0
 73
     1
 93
        3
 10
-32.010104709201386
 20
116.59718967013887
 10
-31.013094075520829
 20
112.59674479166665
 10
-33.007115342881939
 20
112.59674479166665
 97
        0
 75
     0
 76
     1
 98
        1
 10
0.0
 20
0.0
  0
LINE
  5
A2
100
AcDbEntity
  8
EBENE_1
 62
   250
100
AcDbLine
 10
-32.010105
 20
108.597678
 30
0.0
 11
-32.010105
 21
116.59719
 31
0.0
  0
LINE
  5
A1
100
AcDbEntity
  8
EBENE_1
 62
   250
100
AcDbLine
 10
-25.510071
 20
124.59739
 30
0.0
 11
-32.010105
 21
124.59739
 31
0.0
  0
LINE
  5
A0
100
AcDbEntity
  8
EBENE_1
 62
   250
100
AcDbLine
 10
-25.510071
 20
116.59719
 30
0.0
 11
-32.010105
 21
116.59719
 31
0.0
  0
MTEXT
  5
9F
100
AcDbEntity
  8
EBENE_1
 62
   250
100
AcDbMText
 10
-17.619424
 20
89.024253
 30
0.0
 40
3.674769
 41
0.0
 71
     1
 72
     2
  1
\fMyriad Roman|b0|i0; 7.0 
  7
STD
210
0.0
220
0.0
230
1.0
 11
1.000001
 21
0.0
 31
0.0
 73
     1
 44
1.0
  0
POLYLINE
  5
9A
100
AcDbEntity
  8
EBENE_1
 62
   250
100
AcDb2dPolyline
 66
     1
 10
0.0
 20
0.0
 30
0.0
 70
     1
  0
VERTEX
  5
9B
100
AcDbEntity
  8
EBENE_1
 62
   250
100
AcDbVertex
100
AcDb2dVertex
 10
-1.510158
 20
86.597298
 30
0.0
  0
VERTEX
  5
9C
100
AcDbEntity
  8
EBENE_1
 62
   250
100
AcDbVertex
100
AcDb2dVertex
 10
-5.511119
 20
85.600288
 30
0.0
  0
VERTEX
  5
9D
100
AcDbEntity
  8
EBENE_1
 62
   250
100
AcDbVertex
100
AcDb2dVertex
 10
-5.511119
 20
87.594309
 30
0.0
  0
SEQEND
  5
9E
100
AcDbEntity
  8
EBENE_1
 62
   250
  0
HATCH
  5
99
100
AcDbEntity
  8
EBENE_1
 62
   250
100
AcDbHatch
 10
0.0
 20
0.0
 30
0.0
210
0.0
220
0.0
230
1.0
  2
SOLID
 70
     1
 71
     0
 91
        1
 92
        3
 72
     0
 73
     1
 93
        3
 10
-1.5101576063368054
 20
86.597298177083331
 10
-5.5111192491319443
 20
85.600287543402771
 10
-5.5111192491319443
 20
87.594308810763877
 97
        0
 75
     0
 76
     1
 98
        1
 10
0.0
 20
0.0
  0
LINE
  5
98
100
AcDbEntity
  8
EBENE_1
 62
   250
100
AcDbLine
 10
-9.510186
 20
86.597298
 30
0.0
 11
-1.510158
 21
86.597298
 31
0.0
  0
POLYLINE
  5
93
100
AcDbEntity
  8
EBENE_1
 62
   250
100
AcDb2dPolyline
 66
     1
 10
0.0
 20
0.0
 30
0.0
 70
     1
  0
VERTEX
  5
94
100
AcDbEntity
  8
EBENE_1
 62
   250
100
AcDbVertex
100
AcDb2dVertex
 10
5.489932
 20
86.597298
 30
0.0
  0
VERTEX
  5
95
100
AcDbEntity
  8
EBENE_1
 62
   250
100
AcDbVertex
100
AcDb2dVertex
 10
9.490894
 20
87.594309
 30
0.0
  0
VERTEX
  5
96
100
AcDbEntity
  8
EBENE_1
 62
   250
100
AcDbVertex
100
AcDb2dVertex
 10
9.490894
 20
85.600288
 30
0.0
  0
SEQEND
  5
97
100
AcDbEntity
  8
EBENE_1
 62
   250
  0
HATCH
  5
92
100
AcDbEntity
  8
EBENE_1
 62
   250
100
AcDbHatch
 10
0.0
 20
0.0
 30
0.0
210
0.0
220
0.0
230
1.0
  2
SOLID
 70
     1
 71
     0
 91
        1
 92
        3
 72
     0
 73
     1
 93
        3
 10
5.4899319118923602
 20
86.597298177083331
 10
9.4908935546874993
 20
87.594308810763877
 10
9.4908935546874993
 20
85.600287543402771
 97
        0
 75
     0
 76
     1
 98
        1
 10
0.0
 20
0.0
  0
LINE
  5
91
100
AcDbEntity
  8
EBENE_1
 62
   250
100
AcDbLine
 10
13.48996
 20
86.597298
 30
0.0
 11
5.489932
 21
86.597298
 31
0.0
  0
LINE
  5
90
100
AcDbEntity
  8
EBENE_1
 62
   250
100
AcDbLine
 10
-1.510158
 20
93.097504
 30
0.0
 11
-1.510158
 21
86.597298
 31
0.0
  0
LINE
  5
8F
100
AcDbEntity
  8
EBENE_1
 62
   250
100
AcDbLine
 10
5.489932
 20
93.097504
 30
0.0
 11
5.489932
 21
86.597298
 31
0.0
  0
MTEXT
  5
8E
100
AcDbEntity
  8
EBENE_1
 62
   250
100
AcDbMText
 10
-20.119358
 20
156.524009
 30
0.0
 40
3.674769
 41
0.0
 71
     1
 72
     2
  1
\fMyriad Roman|b0|i0; 2.5 
  7
STD
210
0.0
220
0.0
230
1.0
 11
1.000001
 21
0.0
 31
0.0
 73
     1
 44
1.0
  0
POLYLINE
  5
89
100
AcDbEntity
  8
EBENE_1
 62
   250
100
AcDb2dPolyline
 66
     1
 10
0.0
 20
0.0
 30
0.0
 70
     1
  0
VERTEX
  5
8A
100
AcDbEntity
  8
EBENE_1
 62
   250
100
AcDbVertex
100
AcDb2dVertex
 10
-4.010091
 20
154.097571
 30
0.0
  0
VERTEX
  5
8B
100
AcDbEntity
  8
EBENE_1
 62
   250
100
AcDbVertex
100
AcDb2dVertex
 10
-8.011053
 20
153.10056
 30
0.0
  0
VERTEX
  5
8C
100
AcDbEntity
  8
EBENE_1
 62
   250
100
AcDbVertex
100
AcDb2dVertex
 10
-8.011053
 20
155.094581
 30
0.0
  0
SEQEND
  5
8D
100
AcDbEntity
  8
EBENE_1
 62
   250
  0
HATCH
  5
88
100
AcDbEntity
  8
EBENE_1
 62
   250
100
AcDbHatch
 10
0.0
 20
0.0
 30
0.0
210
0.0
220
0.0
230
1.0
  2
SOLID
 70
     1
 71
     0
 91
        1
 92
        3
 72
     0
 73
     1
 93
        3
 10
-4.010091145833333
 20
154.09757080078123
 10
-8.0110527886284721
 20
153.10056016710067
 10
-8.0110527886284721
 20
155.09458143446179
 97
        0
 75
     0
 76
     1
 98
        1
 10
0.0
 20
0.0
  0
LINE
  5
87
100
AcDbEntity
  8
EBENE_1
 62
   250
100
AcDbLine
 10
-12.01012
 20
154.097571
 30
0.0
 11
-4.010091
 21
154.097571
 31
0.0
  0
POLYLINE
  5
82
100
AcDbEntity
  8
EBENE_1
 62
   250
100
AcDb2dPolyline
 66
     1
 10
0.0
 20
0.0
 30
0.0
 70
     1
  0
VERTEX
  5
83
100
AcDbEntity
  8
EBENE_1
 62
   250
100
AcDbVertex
100
AcDb2dVertex
 10
-1.510158
 20
154.097571
 30
0.0
  0
VERTEX
  5
84
100
AcDbEntity
  8
EBENE_1
 62
   250
100
AcDbVertex
100
AcDb2dVertex
 10
2.490804
 20
155.094581
 30
0.0
  0
VERTEX
  5
85
100
AcDbEntity
  8
EBENE_1
 62
   250
100
AcDbVertex
100
AcDb2dVertex
 10
2.490804
 20
153.10056
 30
0.0
  0
SEQEND
  5
86
100
AcDbEntity
  8
EBENE_1
 62
   250
  0
HATCH
  5
81
100
AcDbEntity
  8
EBENE_1
 62
   250
100
AcDbHatch
 10
0.0
 20
0.0
 30
0.0
210
0.0
220
0.0
230
1.0
  2
SOLID
 70
     1
 71
     0
 91
        1
 92
        3
 72
     0
 73
     1
 93
        3
 10
-1.5101576063368054
 20
154.09757080078123
 10
2.490804036458333
 20
155.09458143446179
 10
2.490804036458333
 20
153.10056016710067
 97
        0
 75
     0
 76
     1
 98
        1
 10
0.0
 20
0.0
  0
LINE
  5
80
100
AcDbEntity
  8
EBENE_1
 62
   250
100
AcDbLine
 10
6.489871
 20
154.097571
 30
0.0
 11
-1.510158
 21
154.097571
 31
0.0
  0
LINE
  5
7F
100
AcDbEntity
  8
EBENE_1
 62
   250
100
AcDbLine
 10
-4.010091
 20
140.597103
 30
0.0
 11
-4.010091
 21
154.097571
 31
0.0
  0
MTEXT
  5
7E
100
AcDbEntity
  8
EBENE_1
 62
   250
100
AcDbMText
 10
-18.872061
 20
161.996026
 30
0.0
 40
3.674769
 41
0.0
 71
     1
 72
     2
  1
\fMyriad Roman|b0|i0; 24.0 
  7
STD
210
0.0
220
0.0
230
1.0
 11
1.000001
 21
0.0
 31
0.0
 73
     1
 44
1.0
  0
POLYLINE
  5
79
100
AcDbEntity
  8
EBENE_1
 62
   250
100
AcDb2dPolyline
 66
     1
 10
0.0
 20
0.0
 30
0.0
 70
     1
  0
VERTEX
  5
7A
100
AcDbEntity
  8
EBENE_1
 62
   250
100
AcDbVertex
100
AcDb2dVertex
 10
-1.510158
 20
160.097377
 30
0.0
  0
VERTEX
  5
7B
100
AcDbEntity
  8
EBENE_1
 62
   250
100
AcDbVertex
100
AcDb2dVertex
 10
-5.511119
 20
159.100366
 30
0.0
  0
VERTEX
  5
7C
100
AcDbEntity
  8
EBENE_1
 62
   250
100
AcDbVertex
100
AcDb2dVertex
 10
-5.511119
 20
161.094387
 30
0.0
  0
SEQEND
  5
7D
100
AcDbEntity
  8
EBENE_1
 62
   250
  0
HATCH
  5
78
100
AcDbEntity
  8
EBENE_1
 62
   250
100
AcDbHatch
 10
0.0
 20
0.0
 30
0.0
210
0.0
220
0.0
230
1.0
  2
SOLID
 70
     1
 71
     0
 91
        1
 92
        3
 72
     0
 73
     1
 93
        3
 10
-1.5101576063368054
 20
160.09737684461805
 10
-5.5111192491319443
 20
159.10036621093749
 10
-5.5111192491319443
 20
161.09438747829859
 97
        0
 75
     0
 76
     1
 98
        1
 10
0.0
 20
0.0
  0
LINE
  5
77
100
AcDbEntity
  8
EBENE_1
 62
   250
100
AcDbLine
 10
-7.01008
 20
160.097377
 30
0.0
 11
-1.510158
 21
160.097377
 31
0.0
  0
POLYLINE
  5
72
100
AcDbEntity
  8
EBENE_1
 62
   250
100
AcDb2dPolyline
 66
     1
 10
0.0
 20
0.0
 30
0.0
 70
     1
  0
VERTEX
  5
73
100
AcDbEntity
  8
EBENE_1
 62
   250
100
AcDbVertex
100
AcDb2dVertex
 10
-25.510071
 20
160.097377
 30
0.0
  0
VERTEX
  5
74
100
AcDbEntity
  8
EBENE_1
 62
   250
100
AcDbVertex
100
AcDb2dVertex
 10
-21.509109
 20
161.094387
 30
0.0
  0
VERTEX
  5
75
100
AcDbEntity
  8
EBENE_1
 62
   250
100
AcDbVertex
100
AcDb2dVertex
 10
-21.509109
 20
159.100366
 30
0.0
  0
SEQEND
  5
76
100
AcDbEntity
  8
EBENE_1
 62
   250
  0
HATCH
  5
71
100
AcDbEntity
  8
EBENE_1
 62
   250
100
AcDbHatch
 10
0.0
 20
0.0
 30
0.0
210
0.0
220
0.0
230
1.0
  2
SOLID
 70
     1
 71
     0
 91
        1
 92
        3
 72
     0
 73
     1
 93
        3
 10
-25.510070800781246
 20
160.09737684461805
 10
-21.50910915798611
 20
161.09438747829859
 10
-21.50910915798611
 20
159.10036621093749
 97
        0
 75
     0
 76
     1
 98
        1
 10
0.0
 20
0.0
  0
LINE
  5
70
100
AcDbEntity
  8
EBENE_1
 62
   250
100
AcDbLine
 10
-19.010037
 20
160.097377
 30
0.0
 11
-25.510071
 21
160.097377
 31
0.0
  0
LINE
  5
6F
100
AcDbEntity
  8
EBENE_1
 62
   250
100
AcDbLine
 10
-25.510071
 20
124.59739
 30
0.0
 11
-25.510071
 21
160.097377
 31
0.0
  0
MTEXT
  5
6E
100
AcDbEntity
  8
EBENE_1
 62
   250
100
AcDbMText
 10
111.102951
 20
213.702948
 30
0.0
 40
3.674769
 41
0.0
 71
     1
 72
     2
  1
\fMyriad Roman|b0|i0; 251mm 
  7
STD
210
0.0
220
0.0
230
1.0
 11
1.000001
 21
0.0
 31
0.0
 73
     1
 44
1.0
  0
POLYLINE
  5
69
100
AcDbEntity
  8
EBENE_1
 62
   250
100
AcDb2dPolyline
 66
     1
 10
0.0
 20
0.0
 30
0.0
 70
     1
  0
VERTEX
  5
6A
100
AcDbEntity
  8
EBENE_1
 62
   250
100
AcDbVertex
100
AcDb2dVertex
 10
249.489336
 20
211.097365
 30
0.0
  0
VERTEX
  5
6B
100
AcDbEntity
  8
EBENE_1
 62
   250
100
AcDbVertex
100
AcDb2dVertex
 10
245.488547
 20
210.100354
 30
0.0
  0
VERTEX
  5
6C
100
AcDbEntity
  8
EBENE_1
 62
   250
100
AcDbVertex
100
AcDb2dVertex
 10
245.488547
 20
212.094375
 30
0.0
  0
SEQEND
  5
6D
100
AcDbEntity
  8
EBENE_1
 62
   250
  0
HATCH
  5
68
100
AcDbEntity
  8
EBENE_1
 62
   250
100
AcDbHatch
 10
0.0
 20
0.0
 30
0.0
210
0.0
220
0.0
230
1.0
  2
SOLID
 70
     1
 71
     0
 91
        1
 92
        3
 72
     0
 73
     1
 93
        3
 10
249.48933648003469
 20
211.09736463758679
 10
245.48854709201387
 20
210.10035400390623
 10
245.48854709201387
 20
212.09437527126735
 97
        0
 75
     0
 76
     1
 98
        1
 10
0.0
 20
0.0
  0
LINE
  5
67
100
AcDbEntity
  8
EBENE_1
 62
   250
100
AcDbLine
 10
132.291667
 20
211.097365
 30
0.0
 11
249.489336
 21
211.097365
 31
0.0
  0
POLYLINE
  5
62
100
AcDbEntity
  8
EBENE_1
 62
   250
100
AcDb2dPolyline
 66
     1
 10
0.0
 20
0.0
 30
0.0
 70
     1
  0
VERTEX
  5
63
100
AcDbEntity
  8
EBENE_1
 62
   250
100
AcDbVertex
100
AcDb2dVertex
 10
-1.510158
 20
211.097365
 30
0.0
  0
VERTEX
  5
64
100
AcDbEntity
  8
EBENE_1
 62
   250
100
AcDbVertex
100
AcDb2dVertex
 10
2.490804
 20
212.094375
 30
0.0
  0
VERTEX
  5
65
100
AcDbEntity
  8
EBENE_1
 62
   250
100
AcDbVertex
100
AcDb2dVertex
 10
2.490804
 20
210.100354
 30
0.0
  0
SEQEND
  5
66
100
AcDbEntity
  8
EBENE_1
 62
   250
  0
HATCH
  5
61
100
AcDbEntity
  8
EBENE_1
 62
   250
100
AcDbHatch
 10
0.0
 20
0.0
 30
0.0
210
0.0
220
0.0
230
1.0
  2
SOLID
 70
     1
 71
     0
 91
        1
 92
        3
 72
     0
 73
     1
 93
        3
 10
-1.5101576063368054
 20
211.09736463758679
 10
2.490804036458333
 20
212.09437527126735
 10
2.490804036458333
 20
210.10035400390623
 97
        0
 75
     0
 76
     1
 98
        1
 10
0.0
 20
0.0
  0
LINE
  5
60
100
AcDbEntity
  8
EBENE_1
 62
   250
100
AcDbLine
 10
108.655556
 20
211.097365
 30
0.0
 11
-1.510158
 21
211.097365
 31
0.0
  0
LINE
  5
5F
100
AcDbEntity
  8
EBENE_1
 62
   250
100
AcDbLine
 10
249.489336
 20
195.597536
 30
0.0
 11
249.489336
 21
211.097365
 31
0.0
  0
MTEXT
  5
5E
100
AcDbEntity
  8
EBENE_1
 62
   250
100
AcDbMText
 10
186.691102
 20
205.097444
 30
0.0
 40
3.674769
 41
0.0
 71
     1
 72
     2
  1
\fMyriad Roman|b0|i0; 94.5 
  7
STD
210
0.0
220
0.0
230
1.0
 11
1.000001
 21
0.0
 31
0.0
 73
     1
 44
1.0
  0
POLYLINE
  5
59
100
AcDbEntity
  8
EBENE_1
 62
   250
100
AcDb2dPolyline
 66
     1
 10
0.0
 20
0.0
 30
0.0
 70
     1
  0
VERTEX
  5
5A
100
AcDbEntity
  8
EBENE_1
 62
   250
100
AcDbVertex
100
AcDb2dVertex
 10
249.489336
 20
203.097508
 30
0.0
  0
VERTEX
  5
5B
100
AcDbEntity
  8
EBENE_1
 62
   250
100
AcDbVertex
100
AcDb2dVertex
 10
245.488547
 20
202.100498
 30
0.0
  0
VERTEX
  5
5C
100
AcDbEntity
  8
EBENE_1
 62
   250
100
AcDbVertex
100
AcDb2dVertex
 10
245.488547
 20
204.094519
 30
0.0
  0
SEQEND
  5
5D
100
AcDbEntity
  8
EBENE_1
 62
   250
  0
HATCH
  5
58
100
AcDbEntity
  8
EBENE_1
 62
   250
100
AcDbHatch
 10
0.0
 20
0.0
 30
0.0
210
0.0
220
0.0
230
1.0
  2
SOLID
 70
     1
 71
     0
 91
        1
 92
        3
 72
     0
 73
     1
 93
        3
 10
249.48933648003469
 20
203.09750840928817
 10
245.48854709201387
 20
202.10049777560761
 10
245.48854709201387
 20
204.09451904296873
 97
        0
 75
     0
 76
     1
 98
        1
 10
0.0
 20
0.0
  0
LINE
  5
57
100
AcDbEntity
  8
EBENE_1
 62
   250
100
AcDbLine
 10
197.301997
 20
203.097508
 30
0.0
 11
249.489336
 21
203.097508
 31
0.0
  0
POLYLINE
  5
52
100
AcDbEntity
  8
EBENE_1
 62
   250
100
AcDb2dPolyline
 66
     1
 10
0.0
 20
0.0
 30
0.0
 70
     1
  0
VERTEX
  5
53
100
AcDbEntity
  8
EBENE_1
 62
   250
100
AcDbVertex
100
AcDb2dVertex
 10
154.989334
 20
203.097508
 30
0.0
  0
VERTEX
  5
54
100
AcDbEntity
  8
EBENE_1
 62
   250
100
AcDbVertex
100
AcDb2dVertex
 10
158.990468
 20
204.094519
 30
0.0
  0
VERTEX
  5
55
100
AcDbEntity
  8
EBENE_1
 62
   250
100
AcDbVertex
100
AcDb2dVertex
 10
158.990468
 20
202.100498
 30
0.0
  0
SEQEND
  5
56
100
AcDbEntity
  8
EBENE_1
 62
   250
  0
HATCH
  5
51
100
AcDbEntity
  8
EBENE_1
 62
   250
100
AcDbHatch
 10
0.0
 20
0.0
 30
0.0
210
0.0
220
0.0
230
1.0
  2
SOLID
 70
     1
 71
     0
 91
        1
 92
        3
 72
     0
 73
     1
 93
        3
 10
154.9893337673611
 20
203.09750840928817
 10
158.99046766493055
 20
204.09451904296873
 10
158.99046766493055
 20
202.10049777560761
 97
        0
 75
     0
 76
     1
 98
        1
 10
0.0
 20
0.0
  0
LINE
  5
50
100
AcDbEntity
  8
EBENE_1
 62
   250
100
AcDbLine
 10
186.390346
 20
203.097508
 30
0.0
 11
154.989334
 21
203.097508
 31
0.0
  0
LINE
  5
4F
100
AcDbEntity
  8
EBENE_1
 62
   250
100
AcDbLine
 10
249.489336
 20
195.597536
 30
0.0
 11
249.489336
 21
203.097508
 31
0.0
  0
LINE
  5
4E
100
AcDbEntity
  8
EBENE_1
 62
   250
100
AcDbLine
 10
155.004837
 20
195.690725
 30
0.0
 11
155.004837
 21
203.190698
 31
0.0
  0
MTEXT
  5
4D
100
AcDbEntity
  8
EBENE_1
 62
   250
100
AcDbMText
 10
253.709004
 20
139.192193
 30
0.0
 40
3.674769
 41
0.0
 71
     1
 72
     2
  1
\fMyriad Roman|b0|i0; 100.0 
  7
STD
210
0.0
220
0.0
230
1.0
 11
0.0
 21
1.0
 31
0.0
 73
     1
 44
1.0
  0
POLYLINE
  5
48
100
AcDbEntity
  8
EBENE_1
 62
   250
100
AcDb2dPolyline
 66
     1
 10
0.0
 20
0.0
 30
0.0
 70
     1
  0
VERTEX
  5
49
100
AcDbEntity
  8
EBENE_1
 62
   250
100
AcDbVertex
100
AcDb2dVertex
 10
255.989543
 20
95.597266
 30
0.0
  0
VERTEX
  5
4A
100
AcDbEntity
  8
EBENE_1
 62
   250
100
AcDbVertex
100
AcDb2dVertex
 10
254.992532
 20
99.5984
 30
0.0
  0
VERTEX
  5
4B
100
AcDbEntity
  8
EBENE_1
 62
   250
100
AcDbVertex
100
AcDb2dVertex
 10
256.986553
 20
99.5984
 30
0.0
  0
SEQEND
  5
4C
100
AcDbEntity
  8
EBENE_1
 62
   250
  0
HATCH
  5
47
100
AcDbEntity
  8
EBENE_1
 62
   250
100
AcDbHatch
 10
0.0
 20
0.0
 30
0.0
210
0.0
220
0.0
230
1.0
  2
SOLID
 70
     1
 71
     0
 91
        1
 92
        3
 72
     0
 73
     1
 93
        3
 10
255.98954264322916
 20
95.597265624999991
 10
254.9925320095486
 20
99.598399522569437
 10
256.98655327690972
 20
99.598399522569437
 97
        0
 75
     0
 76
     1
 98
        1
 10
0.0
 20
0.0
  0
LINE
  5
46
100
AcDbEntity
  8
EBENE_1
 62
   250
100
AcDbLine
 10
255.989543
 20
138.645112
 30
0.0
 11
255.989543
 21
95.597266
 31
0.0
  0
POLYLINE
  5
41
100
AcDbEntity
  8
EBENE_1
 62
   250
100
AcDb2dPolyline
 66
     1
 10
0.0
 20
0.0
 30
0.0
 70
     1
  0
VERTEX
  5
42
100
AcDbEntity
  8
EBENE_1
 62
   250
100
AcDbVertex
100
AcDb2dVertex
 10
255.989543
 20
195.597536
 30
0.0
  0
VERTEX
  5
43
100
AcDbEntity
  8
EBENE_1
 62
   250
100
AcDbVertex
100
AcDb2dVertex
 10
256.986553
 20
191.596402
 30
0.0
  0
VERTEX
  5
44
100
AcDbEntity
  8
EBENE_1
 62
   250
100
AcDbVertex
100
AcDb2dVertex
 10
254.992532
 20
191.596402
 30
0.0
  0
SEQEND
  5
45
100
AcDbEntity
  8
EBENE_1
 62
   250
  0
HATCH
  5
40
100
AcDbEntity
  8
EBENE_1
 62
   250
100
AcDbHatch
 10
0.0
 20
0.0
 30
0.0
210
0.0
220
0.0
230
1.0
  2
SOLID
 70
     1
 71
     0
 91
        1
 92
        3
 72
     0
 73
     1
 93
        3
 10
255.98954264322916
 20
195.59753553602428
 10
256.98655327690972
 20
191.59640163845484
 10
254.9925320095486
 20
191.59640163845484
 97
        0
 75
     0
 76
     1
 98
        1
 10
0.0
 20
0.0
  0
LINE
  5
3F
100
AcDbEntity
  8
EBENE_1
 62
   250
100
AcDbLine
 10
255.989543
 20
152.549345
 30
0.0
 11
255.989543
 21
195.597536
 31
0.0
  0
LINE
  5
3E
100
AcDbEntity
  8
EBENE_1
 62
   250
100
AcDbLine
 10
249.489336
 20
95.597266
 30
0.0
 11
255.989543
 21
95.597266
 31
0.0
  0
LINE
  5
3D
100
AcDbEntity
  8
EBENE_1
 62
   250
100
AcDbLine
 10
249.489336
 20
195.597536
 30
0.0
 11
255.989543
 21
195.597536
 31
0.0
  0
MTEXT
  5
3C
100
AcDbEntity
  8
EBENE_1
 62
   250
100
AcDbMText
 10
70.570542
 20
123.580628
 30
0.0
 40
3.674769
 41
0.0
 71
     1
 72
     2
  1
\fMyriad Roman|b0|i0; 50.0 
  7
STD
210
0.0
220
0.0
230
1.0
 11
1.000001
 21
0.0
 31
0.0
 73
     1
 44
1.0
  0
LINE
  5
3B
100
AcDbEntity
  8
EBENE_1
 62
   250
100
AcDbLine
 10
75.88374
 20
125.083493
 30
0.0
 11
75.88374
 21
144.979264
 31
0.0
  0
LINE
  5
3A
100
AcDbEntity
  8
EBENE_1
 62
   250
100
AcDbLine
 10
76.127308
 20
96.372412
 30
0.0
 11
76.127308
 21
117.972472
 31
0.0
  0
POLYLINE
  5
35
100
AcDbEntity
  8
EBENE_1
 62
   250
100
AcDb2dPolyline
 66
     1
 10
0.0
 20
0.0
 30
0.0
 70
     1
  0
VERTEX
  5
36
100
AcDbEntity
  8
EBENE_1
 62
   250
100
AcDbVertex
100
AcDb2dVertex
 10
76.172439
 20
95.644119
 30
0.0
  0
VERTEX
  5
37
100
AcDbEntity
  8
EBENE_1
 62
   250
100
AcDbVertex
100
AcDb2dVertex
 10
75.175429
 20
99.645253
 30
0.0
  0
VERTEX
  5
38
100
AcDbEntity
  8
EBENE_1
 62
   250
100
AcDbVertex
100
AcDb2dVertex
 10
77.169105
 20
99.645253
 30
0.0
  0
SEQEND
  5
39
100
AcDbEntity
  8
EBENE_1
 62
   250
  0
HATCH
  5
34
100
AcDbEntity
  8
EBENE_1
 62
   250
100
AcDbHatch
 10
0.0
 20
0.0
 30
0.0
210
0.0
220
0.0
230
1.0
  2
SOLID
 70
     1
 71
     0
 91
        1
 92
        3
 72
     0
 73
     1
 93
        3
 10
76.172439236111103
 20
95.644118923611103
 10
75.175428602430543
 20
99.645252821180549
 10
77.169105360243051
 20
99.645252821180549
 97
        0
 75
     0
 76
     1
 98
        1
 10
0.0
 20
0.0
  0
POLYLINE
  5
2F
100
AcDbEntity
  8
EBENE_1
 62
   250
100
AcDb2dPolyline
 66
     1
 10
0.0
 20
0.0
 30
0.0
 70
     1
  0
VERTEX
  5
30
100
AcDbEntity
  8
EBENE_1
 62
   250
100
AcDbVertex
100
AcDb2dVertex
 10
75.965734
 20
145.641412
 30
0.0
  0
VERTEX
  5
31
100
AcDbEntity
  8
EBENE_1
 62
   250
100
AcDbVertex
100
AcDb2dVertex
 10
76.962744
 20
141.640967
 30
0.0
  0
VERTEX
  5
32
100
AcDbEntity
  8
EBENE_1
 62
   250
100
AcDbVertex
100
AcDb2dVertex
 10
74.968723
 20
141.640967
 30
0.0
  0
SEQEND
  5
33
100
AcDbEntity
  8
EBENE_1
 62
   250
  0
HATCH
  5
2E
100
AcDbEntity
  8
EBENE_1
 62
   250
100
AcDbHatch
 10
0.0
 20
0.0
 30
0.0
210
0.0
220
0.0
230
1.0
  2
SOLID
 70
     1
 71
     0
 91
        1
 92
        3
 72
     0
 73
     1
 93
        3
 10
75.965733506944431
 20
145.6414116753472
 10
76.962744140624991
 20
141.64096679687498
 10
74.968722873263886
 20
141.64096679687498
 97
        0
 75
     0
 76
     1
 98
        1
 10
0.0
 20
0.0
  0
LINE
  5
2D
100
AcDbEntity
  8
EBENE_1
 62
   250
100
AcDbLine
 10
-24.826564
 20
116.605113
 30
0.0
 11
-24.826564
 21
124.551226
 31
0.0
  0
LINE
  5
2C
100
AcDbEntity
  8
EBENE_1
 62
   250
100
AcDbLine
 10
5.61275
 20
136.707246
 30
0.0
 11
132.368492
 21
136.707246
 31
0.0
  0
LINE
  5
2B
100
AcDbEntity
  8
EBENE_1
 62
   250
100
AcDbLine
 10
5.539369
 20
133.121246
 30
0.0
 11
132.368837
 21
133.121246
 31
0.0
  0
LINE
  5
2A
100
AcDbEntity
  8
EBENE_1
 62
   250
100
AcDbLine
 10
5.516115
 20
104.528676
 30
0.0
 11
132.368492
 21
104.528676
 31
0.0
  0
LINE
  5
29
100
AcDbEntity
  8
EBENE_1
 62
   250
100
AcDbLine
 10
5.466161
 20
108.022347
 30
0.0
 11
132.460821
 21
108.022347
 31
0.0
  0
ENDSEC
  0
SECTION
  2
OBJECTS
  0
DICTIONARY
  5
19
100
AcDbDictionary
280
     0
281
     1
  3
ACAD_GROUP
350
1A
  3
ACAD_MLINESTYLE
350
1B
  3
ACAD_LAYOUT
350
1E
  3
ACAD_PLOTSETTINGS
350
22
  3
ACAD_PLOTSTYLENAME
350
1F
  3
ACAD_WIPEOUT_VARS
350
23
  0
DICTIONARY
  5
1A
102
{ACAD_REACTORS
330
19
102
}
100
AcDbDictionary
280
     0
281
     1
  0
DICTIONARY
  5
1B
102
{ACAD_REACTORS
330
19
102
}
100
AcDbDictionary
280
     0
281
     1
  3
Standard
350
1C
  0
MLINESTYLE
  5
1C
102
{ACAD_REACTORS
330
1B
102
}
100
AcDbMlineStyle
  2
Standard
 70
     0
  3

 62
     0
 51
90.0
 52
90.0
 71
     2
 49
0.5
 62
   256
  6
BYLAYER
 49
-0.5
 62
   256
  6
BYLAYER
  0
ACDBDICTIONARYWDFLT
  5
1F
102
{ACAD_REACTORS
330
19
102
}
100
AcDbDictionary
281
     1
  3
Normal
350
1D
100
AcDbDictionaryWithDefault
340
1D
  0
ACDBPLACEHOLDER
  5
1D
102
{ACAD_REACTORS
330
1F
102
}
  0
LAYOUT
  5
20
102
{ACAD_REACTORS
330
1E
102
}
100
AcDbPlotSettings
  1

  2

  4

  6

 40
0.0
 41
0.0
 42
0.0
 43
0.0
 44
0.0
 45
0.0
 46
0.0
 47
0.0
 48
0.0
 49
0.0
140
0.0
141
0.0
142
1.0
143
1.0
 70
  1024
 72
     0
 73
     0
 74
     0
  7

 75
     0
147
1.0
148
0.0
149
0.0
100
AcDbLayout
  1
Model
 70
     0
 71
     0
 10
0.0
 20
0.0
 11
0.0
 21
0.0
 12
0.0
 22
0.0
 32
0.0
 14
0.0
 24
0.0
 34
0.0
 15
0.0
 25
0.0
 35
0.0
146
0.0
 13
0.0
 23
0.0
 33
0.0
 16
0.0
 26
0.0
 36
0.0
 17
0.0
 27
0.0
 37
0.0
 76
     0
330
A
331
0
345
0
346
0
  0
LAYOUT
  5
21
102
{ACAD_REACTORS
330
1E
102
}
100
AcDbPlotSettings
  1

  2

  4

  6

 40
0.0
 41
0.0
 42
0.0
 43
0.0
 44
0.0
 45
0.0
 46
0.0
 47
0.0
 48
0.0
 49
0.0
140
0.0
141
0.0
142
1.0
143
1.0
 70
     0
 72
     0
 73
     0
 74
     0
  7

 75
     0
147
1.0
148
0.0
149
0.0
100
AcDbLayout
  1
Layout1
 70
     0
 71
     0
 10
0.0
 20
0.0
 11
0.0
 21
0.0
 12
0.0
 22
0.0
 32
0.0
 14
0.0
 24
0.0
 34
0.0
 15
0.0
 25
0.0
 35
0.0
146
0.0
 13
0.0
 23
0.0
 33
0.0
 16
0.0
 26
0.0
 36
0.0
 17
0.0
 27
0.0
 37
0.0
 76
     0
330
B
331
0
345
0
346
0
  0
DICTIONARY
  5
1E
102
{ACAD_REACTORS
330
19
102
}
100
AcDbDictionary
280
     0
281
     1
  3
Layout1
350
21
  3
Model
350
20
  0
DICTIONARY
  5
22
102
{ACAD_REACTORS
330
19
102
}
100
AcDbDictionary
280
     0
281
     1
  0
WIPEOUTVARIABLES
  5
23
100
AcDbWipeoutVariables
 70
     1
  0
ENDSEC
  0
EOF
