  0
SECTION
  2
HEADER
  9
$ACADVER
  1
AC1015
  9
$ACADMAINTVER
 70
     6
  9
$DWGCODEPAGE
  3
ANSI_932
  9
$INSBASE
 10
0.0
 20
0.0
 30
0.0
  9
$EXTMIN
 10
-79.741041
 20
72.435889
 30
1.000000E+20
  9
$EXTMAX
 10
230.631917
 20
244.498599
 30
-1.000000E+20
  9
$LIMMIN
 10
-79.741041
 20
72.435889
  9
$LIMMAX
 10
230.631917
 20
244.498599
  9
$ORTHOMODE
 70
     0
  9
$REGENMODE
 70
     1
  9
$FILLMODE
 70
     1
  9
$QTEXTMODE
 70
     0
  9
$MIRRTEXT
 70
     1
  9
$LTSCALE
 40
1.0
  9
$ATTMODE
 70
     1
  9
$TEXTSIZE
 40
0.2
  9
$TRACEWID
 40
0.05
  9
$TEXTSTYLE
  7
Standard
  9
$CLAYER
  8
0
  9
$CELTYPE
  6
Continuous
  9
$CECOLOR
 62
   256
  9
$CELTSCALE
 40
1.0
  9
$DISPSILH
 70
     0
  9
$DIMSCALE
 40
1.0
  9
$DIMASZ
 40
0.18
  9
$DIMEXO
 40
0.0625
  9
$DIMDLI
 40
0.38
  9
$DIMRND
 40
0.0
  9
$DIMDLE
 40
0.0
  9
$DIMEXE
 40
0.18
  9
$DIMTP
 40
0.0
  9
$DIMTM
 40
0.0
  9
$DIMTXT
 40
0.18
  9
$DIMCEN
 40
0.09
  9
$DIMTSZ
 40
0.0
  9
$DIMTOL
 70
     0
  9
$DIMLIM
 70
     0
  9
$DIMTIH
 70
     1
  9
$DIMTOH
 70
     1
  9
$DIMSE1
 70
     0
  9
$DIMSE2
 70
     0
  9
$DIMTAD
 70
     0
  9
$DIMZIN
 70
     0
  9
$DIMBLK
  1

  9
$DIMASO
 70
     1
  9
$DIMSHO
 70
     1
  9
$DIMPOST
  1

  9
$DIMAPOST
  1

  9
$DIMALT
 70
     0
  9
$DIMALTD
 70
     2
  9
$DIMALTF
 40
25.4
  9
$DIMLFAC
 40
1.0
  9
$DIMTOFL
 70
     0
  9
$DIMTVP
 40
0.0
  9
$DIMTIX
 70
     0
  9
$DIMSOXD
 70
     0
  9
$DIMSAH
 70
     0
  9
$DIMBLK1
  1

  9
$DIMBLK2
  1

  9
$DIMSTYLE
  2
Standard
  9
$DIMCLRD
 70
     0
  9
$DIMCLRE
 70
     0
  9
$DIMCLRT
 70
     0
  9
$DIMTFAC
 40
1.0
  9
$DIMGAP
 40
0.09
  9
$DIMJUST
 70
     0
  9
$DIMSD1
 70
     0
  9
$DIMSD2
 70
     0
  9
$DIMTOLJ
 70
     1
  9
$DIMTZIN
 70
     0
  9
$DIMALTZ
 70
     0
  9
$DIMALTTZ
 70
     0
  9
$DIMUPT
 70
     0
  9
$DIMDEC
 70
     4
  9
$DIMTDEC
 70
     4
  9
$DIMALTU
 70
     2
  9
$DIMALTTD
 70
     2
  9
$DIMTXSTY
  7
Standard
  9
$DIMAUNIT
 70
     0
  9
$DIMADEC
 70
     0
  9
$DIMALTRND
 40
0.0
  9
$DIMAZIN
 70
     0
  9
$DIMDSEP
 70
     0
  9
$DIMATFIT
 70
     3
  9
$DIMFRAC
 70
     0
  9
$DIMLDRBLK
  1

  9
$DIMLUNIT
 70
     2
  9
$DIMLWD
 70
     0
  9
$DIMLWE
 70
     0
  9
$DIMTMOVE
 70
     0
  9
$LUNITS
 70
     2
  9
$LUPREC
 70
     4
  9
$SKETCHINC
 40
0.1
  9
$FILLETRAD
 40
0.0
  9
$AUNITS
 70
     0
  9
$AUPREC
 70
     0
  9
$MENU
  1
acad
  9
$ELEVATION
 40
0.0
  9
$PELEVATION
 40
0.0
  9
$THICKNESS
 40
0.0
  9
$LIMCHECK
 70
     0
  9
$CHAMFERA
 40
0.0
  9
$CHAMFERB
 40
0.0
  9
$CHAMFERC
 40
0.0
  9
$CHAMFERD
 40
0.0
  9
$SKPOLY
 70
     0
  9
$TDCREATE
 40
0.000000000
  9
$TDUCREATE
 40
0.000000000
  9
$TDUPDATE
 40
0.000000000
  9
$TDUUPDATE
 40
0.000000000
  9
$TDINDWG
 40
0.0000000000
  9
$TDUSRTIMER
 40
0.0000000000
  9
$USRTIMER
 70
     1
  9
$ANGBASE
 50
0.0
  9
$ANGDIR
 70
     0
  9
$PDMODE
 70
     0
  9
$PDSIZE
 40
0.0
  9
$PLINEWID
 40
0.0
  9
$SPLFRAME
 70
     0
  9
$SPLINETYPE
 70
     6
  9
$SPLINESEGS
 70
     8
  9
$HANDSEED
  5
1DE
  9
$SURFTAB1
 70
     6
  9
$SURFTAB2
 70
     6
  9
$SURFTYPE
 70
     6
  9
$SURFU
 70
     6
  9
$SURFV
 70
     6
  9
$UCSBASE
  2

  9
$UCSNAME
  2

  9
$UCSORG
 10
0.0
 20
0.0
 30
0.0
  9
$UCSXDIR
 10
1.0
 20
0.0
 30
0.0
  9
$UCSYDIR
 10
0.0
 20
1.0
 30
0.0
  9
$UCSORTHOREF
  2

  9
$UCSORTHOVIEW
 70
     0
  9
$UCSORGTOP
 10
0.0
 20
0.0
 30
0.0
  9
$UCSORGBOTTOM
 10
0.0
 20
0.0
 30
0.0
  9
$UCSORGLEFT
 10
0.0
 20
0.0
 30
0.0
  9
$UCSORGRIGHT
 10
0.0
 20
0.0
 30
0.0
  9
$UCSORGFRONT
 10
0.0
 20
0.0
 30
0.0
  9
$UCSORGBACK
 10
0.0
 20
0.0
 30
0.0
  9
$PUCSBASE
  2

  9
$PUCSNAME
  2

  9
$PUCSORG
 10
0.0
 20
0.0
 30
0.0
  9
$PUCSXDIR
 10
1.0
 20
0.0
 30
0.0
  9
$PUCSYDIR
 10
0.0
 20
1.0
 30
0.0
  9
$PUCSORTHOREF
  2

  9
$PUCSORTHOVIEW
 70
     0
  9
$PUCSORGTOP
 10
0.0
 20
0.0
 30
0.0
  9
$PUCSORGBOTTOM
 10
0.0
 20
0.0
 30
0.0
  9
$PUCSORGLEFT
 10
0.0
 20
0.0
 30
0.0
  9
$PUCSORGRIGHT
 10
0.0
 20
0.0
 30
0.0
  9
$PUCSORGFRONT
 10
0.0
 20
0.0
 30
0.0
  9
$PUCSORGBACK
 10
0.0
 20
0.0
 30
0.0
  9
$USERI1
 70
     0
  9
$USERI2
 70
     0
  9
$USERI3
 70
     0
  9
$USERI4
 70
     0
  9
$USERI5
 70
     0
  9
$USERR1
 40
0.0
  9
$USERR2
 40
0.0
  9
$USERR3
 40
0.0
  9
$USERR4
 40
0.0
  9
$USERR5
 40
0.0
  9
$WORLDVIEW
 70
     1
  9
$SHADEDGE
 70
     3
  9
$SHADEDIF
 70
    70
  9
$TILEMODE
 70
     1
  9
$MAXACTVP
 70
    16
  9
$PINSBASE
 10
0.0
 20
0.0
 30
0.0
  9
$PLIMCHECK
 70
     0
  9
$PEXTMIN
 10
1.000000E+20
 20
1.000000E+20
 30
1.000000E+20
  9
$PEXTMAX
 10
-1.000000E+20
 20
-1.000000E+20
 30
-1.000000E+20
  9
$PLIMMIN
 10
0.0
 20
0.0
  9
$PLIMMAX
 10
12.0
 20
9.0
  9
$UNITMODE
 70
     0
  9
$VISRETAIN
 70
     0
  9
$PLINEGEN
 70
     1
  9
$PSLTSCALE
 70
     0
  9
$TREEDEPTH
 70
  3020
  9
$CMLSTYLE
  2
Standard
  9
$CMLJUST
 70
     0
  9
$CMLSCALE
 40
1.0
  9
$PROXYGRAPHICS
 70
     0
  9
$MEASUREMENT
 70
     0
  9
$CELWEIGHT
370
     0
  9
$ENDCAPS
280
     0
  9
$JOINSTYLE
280
     0
  9
$LWDISPLAY
290
     0
  9
$INSUNITS
 70
     0
  9
$HYPERLINKBASE
  1

  9
$XEDIT
290
     1
  9
$CEPSNTYPE
380
     0
  9
$PSTYLEMODE
290
     1
  9
$FINGERPRINTGUID
  2

  9
$VERSIONGUID
  2

  9
$EXTNAMES
290
     1
  9
$PSVPSCALE
 40
0.0
  0
ENDSEC
  0
SECTION
  2
CLASSES
  0
CLASS
  1
LWPOLYLINE
  2
AcDbPolyline
  3
"AutoCAD"
 90
        0
280
     0
281
     1
  0
CLASS
  1
IMAGE
  2
AcDbRasterImage
  3
ISM
 90
      127
280
     0
281
     1
  0
CLASS
  1
OLE2FRAME
  2
AcDbOle2Frame
  3
""
 90
        0
280
     0
281
     1
  0
CLASS
  1
HATCH
  2
AcDbHatch
  3
"ACAD_SEDONA"
 90
        0
280
     0
281
     1
  0
CLASS
  1
DICTIONARYVAR
  2
AcDbDictionaryVar
  3
"AutoCAD"
 90
        0
280
     0
281
     0
  0
CLASS
  1
RASTERVARIABLES
  2
AcDbRasterVariables
  3
ISM
 90
        0
280
     0
281
     0
  0
CLASS
  1
IMAGEDEF
  2
AcDbRasterImageDef
  3
ISM
 90
        0
280
     0
281
     0
  0
CLASS
  1
IMAGEDEF_REACTOR
  2
AcDbRasterImageDefReactor
  3
ISM
 90
        1
280
     0
281
     0
  0
CLASS
  1
IDBUFFER
  2
AcDbIdBuffer
  3
"Acad"
 90
        0
280
     0
281
     0
  0
CLASS
  1
SPATIAL_FILTER
  2
AcDbSpatialFilter
  3
"Acad"
 90
        0
280
     0
281
     0
  0
CLASS
  1
XRECORD
  2
AcDbXrecord
  3
"<Built In>"
 90
        0
280
     0
281
     0
  0
CLASS
  1
SORTENTSTABLE
  2
AcDbSortentsTable
  3
"AutoCAD"
 90
        0
280
     0
281
     0
  0
CLASS
  1
LAYER_INDEX
  2
AcDbLayerIndex
  3
"Acad"
 90
        0
280
     0
281
     0
  0
CLASS
  1
SPATIAL_INDEX
  2
AcDbSpatialIndex
  3
"Acad"
 90
        0
280
     0
281
     0
  0
CLASS
  1
OBJECT_PTR
  2
CAseDLPNTableRecord
  3
"ASE-LPNTableRecord"
 90
        1
280
     0
281
     0
  0
CLASS
  1
LAYOUT
  2
AcDbLayout
  3
"AutoCAD 2000"
 90
        1
280
     0
281
     0
  0
CLASS
  1
PLOTSETTINGS
  2
AcDbPlotSettings
  3
"AutoCAD 2000"
 90
        1
280
     0
281
     0
  0
CLASS
  1
ACDBDICTIONARYWDFLT
  2
AcDbDictionaryWithDefault
  3
"AutoCAD 2000"
 90
        1
280
     0
281
     0
  0
CLASS
  1
ACDBPLACEHOLDER
  2
AcDbPlaceHolder
  3
"AutoCAD 2000"
 90
        1
280
     0
281
     0
  0
CLASS
  1
VBA_PROJECT
  2
AcDbVbaProject
  3
"acadvba"
 90
        1
280
     0
281
     0
  0
CLASS
  1
WIPEOUT
  2
AcDbWipeout
  3
WipeOut|AutoCAD Express Tool|expresstools@autodesk.com
 90
      127
280
     0
281
     1
  0
CLASS
  1
WIPEOUTVARIABLES
  2
AcDbWipeoutVariables
  3
WipeOut|AutoCAD Express Tool|expresstools@autodesk.com
 90
        0
280
     0
281
     0
  0
CLASS
  1
RTEXT
  2
RText
  3
RText|AutoCAD Express Tool|expresstools@autodesk.com
 90
        0
280
     0
281
     1
  0
CLASS
  1
ARCALIGNEDTEXT
  2
AcDbArcAlignedText
  3
ATEXT|AutoCAD Express Tool|expresstools@autodesk.com
 90
        0
280
     0
281
     1
  0
ENDSEC
  0
SECTION
  2
TABLES
  0
TABLE
  2
VPORT
  5
7
100
AcDbSymbolTable
 70
     1
  0
VPORT
  5
15
100
AcDbSymbolTableRecord
100
AcDbViewportTableRecord
  2
*ACTIVE
 70
     0
 10
0.0
 20
0.0
 11
1.0
 21
1.0
 12
6.591288
 22
4.579184
 13
0.0
 23
0.0
 14
1.0
 24
1.0
 15
0.0
 25
0.0
 16
0.0
 26
0.0
 36
1.0
 17
0.0
 27
0.0
 37
0.0
 40
9.158369
 41
0.688564
 42
50.0
 43
0.0
 44
0.0
 50
0.0
 51
0.0
 71
     0
 72
   100
 73
     1
 74
     1
 75
     0
 76
     0
 77
     0
 78
     0
281
     0
 65
     0
110
0.0
120
0.0
130
0.0
111
1.0
121
0.0
131
0.0
112
0.0
122
1.0
132
0.0
345
0
346
0
 79
     0
146
0.0
  0
ENDTAB
  0
TABLE
  2
LTYPE
  5
4
100
AcDbSymbolTable
 70
     3
  0
LTYPE
  5
11
100
AcDbSymbolTableRecord
100
AcDbLinetypeTableRecord
  2
ByBlock
 70
    64
  3

 72
    65
 73
     0
 40
0.0
  0
LTYPE
  5
12
100
AcDbSymbolTableRecord
100
AcDbLinetypeTableRecord
  2
ByLayer
 70
    64
  3

 72
    65
 73
     0
 40
0.0
  0
LTYPE
  5
13
100
AcDbSymbolTableRecord
100
AcDbLinetypeTableRecord
  2
Continuous
 70
    64
  3
Solid line
 72
    65
 73
     0
 40
0.0
  0
ENDTAB
  0
TABLE
  2
LAYER
  5
2
100
AcDbSymbolTable
 70
     2
  0
LAYER
  5
14
100
AcDbSymbolTableRecord
100
AcDbLayerTableRecord
  2
0
 70
     0
 62
     7
  6
Continuous
290
     1
370
    -3
390
1D
  0
LAYER
  5
28
100
AcDbSymbolTableRecord
100
AcDbLayerTableRecord
  2
EBENE_1
 70
     0
 62
   160
  6
Continuous
290
     1
370
    -3
390
1F
  0
ENDTAB
  0
TABLE
  2
STYLE
  5
3
100
AcDbSymbolTable
 70
     5
  0
STYLE
  5
17
100
AcDbSymbolTableRecord
100
AcDbTextStyleTableRecord
  2
Standard
 70
     0
 40
0.0
 41
1.0
 50
0.0
 71
     0
 42
0.0
  3
txt
  4

  0
STYLE
  5
24
100
AcDbSymbolTableRecord
100
AcDbTextStyleTableRecord
  2
STD
 70
     0
 40
0.0
 41
1.0
 50
0.0
 71
     0
 42
0.0
  3
txt
  4

  0
STYLE
  5
25
100
AcDbSymbolTableRecord
100
AcDbTextStyleTableRecord
  2
TATESTD
 70
     4
 40
0.0
 41
1.0
 50
0.0
 71
     0
 42
0.0
  3
txt
  4

  0
STYLE
  5
26
100
AcDbSymbolTableRecord
100
AcDbTextStyleTableRecord
  2
KANJISTD
 70
     0
 40
0.0
 41
1.0
 50
0.0
 71
     0
 42
0.0
  3
txt
  4
extfont
  0
STYLE
  5
27
100
AcDbSymbolTableRecord
100
AcDbTextStyleTableRecord
  2
KANJITATE
 70
     4
 40
0.0
 41
1.0
 50
0.0
 71
     0
 42
0.0
  3
txt
  4
extfont
  0
ENDTAB
  0
TABLE
  2
VIEW
  5
5
100
AcDbSymbolTable
 70
     0
  0
ENDTAB
  0
TABLE
  2
UCS
  5
6
100
AcDbSymbolTable
 70
     0
  0
ENDTAB
  0
TABLE
  2
APPID
  5
8
100
AcDbSymbolTable
 70
     1
  0
APPID
  5
16
100
AcDbSymbolTableRecord
100
AcDbRegAppTableRecord
  2
ACAD
 70
     0
  0
ENDTAB
  0
TABLE
  2
DIMSTYLE
  5
9
100
AcDbSymbolTable
 70
     1
100
AcDbDimStyleTable
 71
     0
  0
DIMSTYLE
105
18
100
AcDbSymbolTableRecord
100
AcDbDimStyleTableRecord
  2
Standard
 70
     0
  3

  4

 40
1.0
 41
0.18
 42
0.0625
 43
0.38
 44
0.18
 45
0.0
 46
0.0
 47
0.0
 48
0.0
 71
     0
 72
     0
 73
     1
 74
     1
 75
     0
 76
     0
 77
     0
 78
     0
 79
     0
140
0.18
141
0.09
142
0.0
143
25.4
144
1.0
145
0.0
146
1.0
147
0.09
148
0.0
170
     0
171
     2
172
     0
173
     0
174
     0
175
     0
176
     0
177
     0
178
     0
179
     0
271
     4
272
     4
273
     2
274
     2
275
     0
276
     0
277
     2
278
    46
279
     0
280
     0
281
     0
282
     0
283
     1
284
     0
285
     0
286
     0
288
     0
340
17
341
0
342
0
343
0
344
0
371
    -2
372
    -2
  0
ENDTAB
  0
TABLE
  2
BLOCK_RECORD
  5
1
100
AcDbSymbolTable
 70
     0
  0
BLOCK_RECORD
  5
A
100
AcDbSymbolTableRecord
100
AcDbBlockTableRecord
  2
*MODEL_SPACE
340
20
  0
BLOCK_RECORD
  5
B
100
AcDbSymbolTableRecord
100
AcDbBlockTableRecord
  2
*PAPER_SPACE
340
21
  0
ENDTAB
  0
ENDSEC
  0
SECTION
  2
BLOCKS
  0
BLOCK
  5
D
100
AcDbEntity
  8
0
100
AcDbBlockBegin
  2
*MODEL_SPACE
 70
     0
 10
0.0
 20
0.0
 30
0.0
  3
*MODEL_SPACE
  1

  0
ENDBLK
  5
E
100
AcDbEntity
  8
0
100
AcDbBlockEnd
  0
BLOCK
  5
F
100
AcDbEntity
 67
     1
  8
0
100
AcDbBlockBegin
  2
*PAPER_SPACE
 70
     0
 10
0.0
 20
0.0
 30
0.0
  3
*PAPER_SPACE
  1

  0
ENDBLK
  5
10
100
AcDbEntity
 67
     1
  8
0
100
AcDbBlockEnd
  0
ENDSEC
  0
SECTION
  2
ENTITIES
  0
POLYLINE
  5
1D5
100
AcDbEntity
  8
EBENE_1
 62
   250
100
AcDb2dPolyline
 66
     1
 10
0.0
 20
0.0
 30
0.0
  0
VERTEX
  5
1D6
100
AcDbEntity
  8
EBENE_1
 62
   250
100
AcDbVertex
100
AcDb2dVertex
 10
108.675537
 20
194.835653
 30
0.0
  0
VERTEX
  5
1D7
100
AcDbEntity
  8
EBENE_1
 62
   250
100
AcDbVertex
100
AcDb2dVertex
 10
108.675537
 20
194.824628
 30
0.0
  0
VERTEX
  5
1D8
100
AcDbEntity
  8
EBENE_1
 62
   250
100
AcDbVertex
100
AcDb2dVertex
 10
109.175765
 20
194.324573
 30
0.0
  0
VERTEX
  5
1D9
100
AcDbEntity
  8
EBENE_1
 62
   250
100
AcDbVertex
100
AcDb2dVertex
 10
119.675727
 20
194.324573
 30
0.0
  0
VERTEX
  5
1DA
100
AcDbEntity
  8
EBENE_1
 62
   250
100
AcDbVertex
100
AcDb2dVertex
 10
119.675727
 20
206.324529
 30
0.0
  0
VERTEX
  5
1DB
100
AcDbEntity
  8
EBENE_1
 62
   250
100
AcDbVertex
100
AcDb2dVertex
 10
109.175765
 20
206.324529
 30
0.0
  0
VERTEX
  5
1DC
100
AcDbEntity
  8
EBENE_1
 62
   250
100
AcDbVertex
100
AcDb2dVertex
 10
108.675537
 20
205.824646
 30
0.0
  0
SEQEND
  5
1DD
100
AcDbEntity
  8
EBENE_1
 62
   250
  0
LINE
  5
1D4
100
AcDbEntity
  8
EBENE_1
 62
   250
100
AcDbLine
 10
119.675727
 20
191.324584
 30
0.0
 11
122.675716
 21
191.324584
 31
0.0
  0
SPLINE
  5
1D3
100
AcDbEntity
  8
EBENE_1
 62
   250
100
AcDbSpline
210
0.0
220
0.0
230
1.0
 70
     8
 71
     3
 72
     8
 73
     4
 74
     0
 42
0.00000001
 43
0.00000001
 40
0.0
 40
0.0
 40
0.0
 40
0.0
 40
1.0
 40
1.0
 40
1.0
 40
1.0
 10
117.67550455729166
 20
194.32457275390624
 30
0.0
 10
117.87187499999999
 20
198.33139105902777
 30
0.0
 10
117.70444335937499
 20
202.34785563151038
 30
0.0
 10
117.17527669270832
 20
206.32452935112846
 30
0.0
  0
SPLINE
  5
1D2
100
AcDbEntity
  8
EBENE_1
 62
   250
100
AcDbSpline
210
0.0
220
0.0
230
1.0
 70
     8
 71
     3
 72
     8
 73
     4
 74
     0
 42
0.00000001
 43
0.00000001
 40
0.0
 40
0.0
 40
0.0
 40
0.0
 40
1.0
 40
1.0
 40
1.0
 40
1.0
 10
116.67504882812499
 20
194.32457275390624
 30
0.0
 10
116.87141927083333
 20
198.33139105902777
 30
0.0
 10
116.70398763020832
 20
202.34785563151038
 30
0.0
 10
116.17550998263887
 20
206.32452935112846
 30
0.0
  0
SPLINE
  5
1D1
100
AcDbEntity
  8
EBENE_1
 62
   250
100
AcDbSpline
210
0.0
220
0.0
230
1.0
 70
     8
 71
     3
 72
     8
 73
     4
 74
     0
 42
0.00000001
 43
0.00000001
 40
0.0
 40
0.0
 40
0.0
 40
0.0
 40
1.0
 40
1.0
 40
1.0
 40
1.0
 10
115.67528211805555
 20
194.32457275390624
 30
0.0
 10
115.87165256076388
 20
198.33139105902777
 30
0.0
 10
115.70422092013888
 20
202.34785563151038
 30
0.0
 10
115.17505425347221
 20
206.32452935112846
 30
0.0
  0
SPLINE
  5
1D0
100
AcDbEntity
  8
EBENE_1
 62
   250
100
AcDbSpline
210
0.0
220
0.0
230
1.0
 70
     8
 71
     3
 72
     8
 73
     4
 74
     0
 42
0.00000001
 43
0.00000001
 40
0.0
 40
0.0
 40
0.0
 40
0.0
 40
1.0
 40
1.0
 40
1.0
 40
1.0
 10
114.6755154079861
 20
194.32457275390624
 30
0.0
 10
114.87119683159722
 20
198.33139105902777
 30
0.0
 10
114.70445421006943
 20
202.34785563151038
 30
0.0
 10
114.17528754340277
 20
206.32452935112846
 30
0.0
  0
SPLINE
  5
1CF
100
AcDbEntity
  8
EBENE_1
 62
   250
100
AcDbSpline
210
0.0
220
0.0
230
1.0
 70
     8
 71
     3
 72
     8
 73
     4
 74
     0
 42
0.00000001
 43
0.00000001
 40
0.0
 40
0.0
 40
0.0
 40
0.0
 40
1.0
 40
1.0
 40
1.0
 40
1.0
 10
113.67505967881944
 20
194.32457275390624
 30
0.0
 10
113.87143012152777
 20
198.33139105902777
 30
0.0
 10
113.70399848090277
 20
202.34785563151038
 30
0.0
 10
113.17552083333332
 20
206.32452935112846
 30
0.0
  0
SPLINE
  5
1CE
100
AcDbEntity
  8
EBENE_1
 62
   250
100
AcDbSpline
210
0.0
220
0.0
230
1.0
 70
     8
 71
     3
 72
     8
 73
     4
 74
     0
 42
0.00000001
 43
0.00000001
 40
0.0
 40
0.0
 40
0.0
 40
0.0
 40
1.0
 40
1.0
 40
1.0
 40
1.0
 10
112.67529296874999
 20
194.32457275390624
 30
0.0
 10
112.87166341145833
 20
198.33139105902777
 30
0.0
 10
112.70423177083332
 20
202.34785563151038
 30
0.0
 10
112.17506510416666
 20
206.32452935112846
 30
0.0
  0
SPLINE
  5
1CD
100
AcDbEntity
  8
EBENE_1
 62
   250
100
AcDbSpline
210
0.0
220
0.0
230
1.0
 70
     8
 71
     3
 72
     8
 73
     4
 74
     0
 42
0.00000001
 43
0.00000001
 40
0.0
 40
0.0
 40
0.0
 40
0.0
 40
1.0
 40
1.0
 40
1.0
 40
1.0
 10
111.67552625868055
 20
194.32457275390624
 30
0.0
 10
111.87120768229165
 20
198.33139105902777
 30
0.0
 10
111.70446506076388
 20
202.34785563151038
 30
0.0
 10
111.17529839409721
 20
206.32452935112846
 30
0.0
  0
SPLINE
  5
1CC
100
AcDbEntity
  8
EBENE_1
 62
   250
100
AcDbSpline
210
0.0
220
0.0
230
1.0
 70
     8
 71
     3
 72
     8
 73
     4
 74
     0
 42
0.00000001
 43
0.00000001
 40
0.0
 40
0.0
 40
0.0
 40
0.0
 40
1.0
 40
1.0
 40
1.0
 40
1.0
 10
110.67507052951387
 20
194.32457275390624
 30
0.0
 10
110.87144097222222
 20
198.33139105902777
 30
0.0
 10
110.70400933159721
 20
202.34785563151038
 30
0.0
 10
110.17553168402777
 20
206.32452935112846
 30
0.0
  0
SPLINE
  5
1CB
100
AcDbEntity
  8
EBENE_1
 62
   250
100
AcDbSpline
210
0.0
220
0.0
230
1.0
 70
     8
 71
     3
 72
     8
 73
     4
 74
     0
 42
0.00000001
 43
0.00000001
 40
0.0
 40
0.0
 40
0.0
 40
0.0
 40
1.0
 40
1.0
 40
1.0
 40
1.0
 10
109.67530381944444
 20
194.32457275390624
 30
0.0
 10
109.87167426215277
 20
198.33139105902777
 30
0.0
 10
109.70424262152777
 20
202.34785563151038
 30
0.0
 10
109.1750759548611
 20
206.32452935112846
 30
0.0
  0
LINE
  5
1CA
100
AcDbEntity
  8
EBENE_1
 62
   250
100
AcDbLine
 10
109.175765
 20
194.324573
 30
0.0
 11
109.175765
 21
206.324529
 31
0.0
  0
SPLINE
  5
1C9
100
AcDbEntity
  8
EBENE_1
 62
   250
100
AcDbSpline
210
0.0
220
0.0
230
1.0
 70
     8
 71
     3
 72
     8
 73
     4
 74
     0
 42
0.00000001
 43
0.00000001
 40
0.0
 40
0.0
 40
0.0
 40
0.0
 40
1.0
 40
1.0
 40
1.0
 40
1.0
 10
118.6752712673611
 20
194.32457275390624
 30
0.0
 10
118.87164171006944
 20
198.33139105902777
 30
0.0
 10
118.70421006944443
 20
202.34785563151038
 30
0.0
 10
118.17504340277776
 20
206.32452935112846
 30
0.0
  0
LINE
  5
1C8
100
AcDbEntity
  8
EBENE_1
 62
   250
100
AcDbLine
 10
119.675727
 20
198.824556
 30
0.0
 11
122.675716
 21
198.824556
 31
0.0
  0
LINE
  5
1C7
100
AcDbEntity
  8
EBENE_1
 62
   250
100
AcDbLine
 10
122.675716
 20
201.824546
 30
0.0
 11
119.675727
 21
201.824546
 31
0.0
  0
LINE
  5
1C6
100
AcDbEntity
  8
EBENE_1
 62
   250
100
AcDbLine
 10
119.675727
 20
209.324519
 30
0.0
 11
122.675716
 21
209.324519
 31
0.0
  0
POLYLINE
  5
1C0
100
AcDbEntity
  8
EBENE_1
 62
   250
100
AcDb2dPolyline
 66
     1
 10
0.0
 20
0.0
 30
0.0
 70
     1
  0
VERTEX
  5
1C1
100
AcDbEntity
  8
EBENE_1
 62
   250
100
AcDbVertex
100
AcDb2dVertex
 10
119.675727
 20
190.324645
 30
0.0
  0
VERTEX
  5
1C2
100
AcDbEntity
  8
EBENE_1
 62
   250
100
AcDbVertex
100
AcDb2dVertex
 10
122.675716
 20
190.324645
 30
0.0
  0
VERTEX
  5
1C3
100
AcDbEntity
  8
EBENE_1
 62
   250
100
AcDbVertex
100
AcDb2dVertex
 10
122.675716
 20
210.32463
 30
0.0
  0
VERTEX
  5
1C4
100
AcDbEntity
  8
EBENE_1
 62
   250
100
AcDbVertex
100
AcDb2dVertex
 10
119.675727
 20
210.32463
 30
0.0
  0
SEQEND
  5
1C5
100
AcDbEntity
  8
EBENE_1
 62
   250
  0
POLYLINE
  5
1BA
100
AcDbEntity
  8
EBENE_1
 62
   250
100
AcDb2dPolyline
 66
     1
 10
0.0
 20
0.0
 30
0.0
 70
     1
  0
VERTEX
  5
1BB
100
AcDbEntity
  8
EBENE_1
 62
   250
100
AcDbVertex
100
AcDb2dVertex
 10
120.52391
 20
173.287442
 30
0.0
  0
VERTEX
  5
1BC
100
AcDbEntity
  8
EBENE_1
 62
   250
100
AcDbVertex
100
AcDb2dVertex
 10
122.62404
 20
173.287442
 30
0.0
  0
VERTEX
  5
1BD
100
AcDbEntity
  8
EBENE_1
 62
   250
100
AcDbVertex
100
AcDb2dVertex
 10
122.62404
 20
187.287621
 30
0.0
  0
VERTEX
  5
1BE
100
AcDbEntity
  8
EBENE_1
 62
   250
100
AcDbVertex
100
AcDb2dVertex
 10
120.52391
 20
187.287621
 30
0.0
  0
SEQEND
  5
1BF
100
AcDbEntity
  8
EBENE_1
 62
   250
  0
POLYLINE
  5
1B1
100
AcDbEntity
  8
EBENE_1
 62
   250
100
AcDb2dPolyline
 66
     1
 10
0.0
 20
0.0
 30
0.0
 70
     1
  0
VERTEX
  5
1B2
100
AcDbEntity
  8
EBENE_1
 62
   250
100
AcDbVertex
100
AcDb2dVertex
 10
112.823432
 20
176.437637
 30
0.0
  0
VERTEX
  5
1B3
100
AcDbEntity
  8
EBENE_1
 62
   250
100
AcDbVertex
100
AcDb2dVertex
 10
112.823432
 20
184.13777
 30
0.0
  0
VERTEX
  5
1B4
100
AcDbEntity
  8
EBENE_1
 62
   250
100
AcDbVertex
100
AcDb2dVertex
 10
113.173454
 20
184.487447
 30
0.0
  0
VERTEX
  5
1B5
100
AcDbEntity
  8
EBENE_1
 62
   250
100
AcDbVertex
100
AcDb2dVertex
 10
120.52391
 20
184.487447
 30
0.0
  0
VERTEX
  5
1B6
100
AcDbEntity
  8
EBENE_1
 62
   250
100
AcDbVertex
100
AcDb2dVertex
 10
120.52391
 20
176.087615
 30
0.0
  0
VERTEX
  5
1B7
100
AcDbEntity
  8
EBENE_1
 62
   250
100
AcDbVertex
100
AcDb2dVertex
 10
113.173454
 20
176.087615
 30
0.0
  0
VERTEX
  5
1B8
100
AcDbEntity
  8
EBENE_1
 62
   250
100
AcDbVertex
100
AcDb2dVertex
 10
112.823432
 20
176.437637
 30
0.0
  0
SEQEND
  5
1B9
100
AcDbEntity
  8
EBENE_1
 62
   250
  0
SPLINE
  5
1B0
100
AcDbEntity
  8
EBENE_1
 62
   250
100
AcDbSpline
210
0.0
220
0.0
230
1.0
 70
     8
 71
     3
 72
     8
 73
     4
 74
     0
 42
0.00000001
 43
0.00000001
 40
0.0
 40
0.0
 40
0.0
 40
0.0
 40
1.0
 40
1.0
 40
1.0
 40
1.0
 10
119.67572699652777
 20
194.32543402777776
 30
0.0
 10
119.73980577256944
 20
198.33190782335069
 30
0.0
 10
119.57237413194443
 20
202.33889838324652
 30
0.0
 10
119.17549913194443
 20
206.32607964409721
 30
0.0
  0
SPLINE
  5
1AF
100
AcDbEntity
  8
EBENE_1
 62
   250
100
AcDbSpline
210
0.0
220
0.0
230
1.0
 70
     8
 71
     3
 72
     8
 73
     4
 74
     0
 42
0.00000001
 43
0.00000001
 40
0.0
 40
0.0
 40
0.0
 40
0.0
 40
1.0
 40
1.0
 40
1.0
 40
1.0
 10
120.52459852430555
 20
176.08795979817708
 30
0.0
 10
120.56938476562499
 20
178.89192301432291
 30
0.0
 10
120.45225151909722
 20
181.69623074001734
 30
0.0
 10
120.17457682291665
 20
184.48675808376734
 30
0.0
  0
LINE
  5
1AE
100
AcDbEntity
  8
EBENE_1
 62
   250
100
AcDbLine
 10
120.52391
 20
186.587577
 30
0.0
 11
122.62404
 21
186.587577
 31
0.0
  0
LINE
  5
1AD
100
AcDbEntity
  8
EBENE_1
 62
   250
100
AcDbLine
 10
122.62404
 20
181.337596
 30
0.0
 11
120.52391
 21
181.337596
 31
0.0
  0
LINE
  5
1AC
100
AcDbEntity
  8
EBENE_1
 62
   250
100
AcDbLine
 10
120.52391
 20
179.237466
 30
0.0
 11
122.62404
 21
179.237466
 31
0.0
  0
LINE
  5
1AB
100
AcDbEntity
  8
EBENE_1
 62
   250
100
AcDbLine
 10
120.52391
 20
173.987485
 30
0.0
 11
122.62404
 21
173.987485
 31
0.0
  0
SPLINE
  5
1AA
100
AcDbEntity
  8
EBENE_1
 62
   250
100
AcDbSpline
210
0.0
220
0.0
230
1.0
 70
     8
 71
     3
 72
     8
 73
     4
 74
     0
 42
0.00000001
 43
0.00000001
 40
0.0
 40
0.0
 40
0.0
 40
0.0
 40
1.0
 40
1.0
 40
1.0
 40
1.0
 10
119.82386610243054
 20
176.08761528862846
 30
0.0
 10
119.96166992187499
 20
178.89261203342014
 30
0.0
 10
119.84453667534721
 20
181.70415445963539
 30
0.0
 10
119.47384440104166
 20
184.48813612196179
 30
0.0
  0
SPLINE
  5
1A9
100
AcDbEntity
  8
EBENE_1
 62
   250
100
AcDbSpline
210
0.0
220
0.0
230
1.0
 70
     8
 71
     3
 72
     8
 73
     4
 74
     0
 42
0.00000001
 43
0.00000001
 40
0.0
 40
0.0
 40
0.0
 40
0.0
 40
1.0
 40
1.0
 40
1.0
 40
1.0
 10
119.12382269965276
 20
176.08761528862846
 30
0.0
 10
119.26162651909721
 20
178.89261203342014
 30
0.0
 10
119.14449327256943
 20
181.70415445963539
 30
0.0
 10
118.77380099826388
 20
184.48813612196179
 30
0.0
  0
SPLINE
  5
1A8
100
AcDbEntity
  8
EBENE_1
 62
   250
100
AcDbSpline
210
0.0
220
0.0
230
1.0
 70
     8
 71
     3
 72
     8
 73
     4
 74
     0
 42
0.00000001
 43
0.00000001
 40
0.0
 40
0.0
 40
0.0
 40
0.0
 40
1.0
 40
1.0
 40
1.0
 40
1.0
 10
118.42377929687498
 20
176.08761528862846
 30
0.0
 10
118.56158311631944
 20
178.89261203342014
 30
0.0
 10
118.44444986979165
 20
181.70415445963539
 30
0.0
 10
118.0737575954861
 20
184.48813612196179
 30
0.0
  0
SPLINE
  5
1A7
100
AcDbEntity
  8
EBENE_1
 62
   250
100
AcDbSpline
210
0.0
220
0.0
230
1.0
 70
     8
 71
     3
 72
     8
 73
     4
 74
     0
 42
0.00000001
 43
0.00000001
 40
0.0
 40
0.0
 40
0.0
 40
0.0
 40
1.0
 40
1.0
 40
1.0
 40
1.0
 10
117.72373589409722
 20
176.08761528862846
 30
0.0
 10
117.86153971354166
 20
178.89261203342014
 30
0.0
 10
117.74440646701387
 20
181.70415445963539
 30
0.0
 10
117.37371419270832
 20
184.48813612196179
 30
0.0
  0
SPLINE
  5
1A6
100
AcDbEntity
  8
EBENE_1
 62
   250
100
AcDbSpline
210
0.0
220
0.0
230
1.0
 70
     8
 71
     3
 72
     8
 73
     4
 74
     0
 42
0.00000001
 43
0.00000001
 40
0.0
 40
0.0
 40
0.0
 40
0.0
 40
1.0
 40
1.0
 40
1.0
 40
1.0
 10
117.02369249131944
 20
176.08761528862846
 30
0.0
 10
117.1621853298611
 20
178.89261203342014
 30
0.0
 10
117.04436306423609
 20
181.70415445963539
 30
0.0
 10
116.67367078993054
 20
184.48813612196179
 30
0.0
  0
SPLINE
  5
1A5
100
AcDbEntity
  8
EBENE_1
 62
   250
100
AcDbSpline
210
0.0
220
0.0
230
1.0
 70
     8
 71
     3
 72
     8
 73
     4
 74
     0
 42
0.00000001
 43
0.00000001
 40
0.0
 40
0.0
 40
0.0
 40
0.0
 40
1.0
 40
1.0
 40
1.0
 40
1.0
 10
116.32364908854166
 20
176.08761528862846
 30
0.0
 10
116.46214192708332
 20
178.89261203342014
 30
0.0
 10
116.34500868055555
 20
181.70415445963539
 30
0.0
 10
115.97362738715277
 20
184.48813612196179
 30
0.0
  0
SPLINE
  5
1A4
100
AcDbEntity
  8
EBENE_1
 62
   250
100
AcDbSpline
210
0.0
220
0.0
230
1.0
 70
     8
 71
     3
 72
     8
 73
     4
 74
     0
 42
0.00000001
 43
0.00000001
 40
0.0
 40
0.0
 40
0.0
 40
0.0
 40
1.0
 40
1.0
 40
1.0
 40
1.0
 10
115.62360568576388
 20
176.08761528862846
 30
0.0
 10
115.76209852430554
 20
178.89261203342014
 30
0.0
 10
115.64496527777777
 20
181.70415445963539
 30
0.0
 10
115.27358398437499
 20
184.48813612196179
 30
0.0
  0
SPLINE
  5
1A3
100
AcDbEntity
  8
EBENE_1
 62
   250
100
AcDbSpline
210
0.0
220
0.0
230
1.0
 70
     8
 71
     3
 72
     8
 73
     4
 74
     0
 42
0.00000001
 43
0.00000001
 40
0.0
 40
0.0
 40
0.0
 40
0.0
 40
1.0
 40
1.0
 40
1.0
 40
1.0
 10
114.9235622829861
 20
176.08761528862846
 30
0.0
 10
115.06205512152776
 20
178.89261203342014
 30
0.0
 10
114.94492187499999
 20
181.70415445963539
 30
0.0
 10
114.57354058159721
 20
184.48813612196179
 30
0.0
  0
SPLINE
  5
1A2
100
AcDbEntity
  8
EBENE_1
 62
   250
100
AcDbSpline
210
0.0
220
0.0
230
1.0
 70
     8
 71
     3
 72
     8
 73
     4
 74
     0
 42
0.00000001
 43
0.00000001
 40
0.0
 40
0.0
 40
0.0
 40
0.0
 40
1.0
 40
1.0
 40
1.0
 40
1.0
 10
114.22351888020832
 20
176.08761528862846
 30
0.0
 10
114.36201171874998
 20
178.89261203342014
 30
0.0
 10
114.24487847222221
 20
181.70415445963539
 30
0.0
 10
113.87349717881943
 20
184.48813612196179
 30
0.0
  0
SPLINE
  5
1A1
100
AcDbEntity
  8
EBENE_1
 62
   250
100
AcDbSpline
210
0.0
220
0.0
230
1.0
 70
     8
 71
     3
 72
     8
 73
     4
 74
     0
 42
0.00000001
 43
0.00000001
 40
0.0
 40
0.0
 40
0.0
 40
0.0
 40
1.0
 40
1.0
 40
1.0
 40
1.0
 10
113.52347547743055
 20
176.08761528862846
 30
0.0
 10
113.66196831597222
 20
178.89261203342014
 30
0.0
 10
113.54483506944443
 20
181.70415445963539
 30
0.0
 10
113.17345377604165
 20
184.48813612196179
 30
0.0
  0
LINE
  5
1A0
100
AcDbEntity
  8
EBENE_1
 62
   250
100
AcDbLine
 10
113.173454
 20
176.087615
 30
0.0
 11
113.173454
 21
184.487447
 31
0.0
  0
LINE
  5
19F
100
AcDbEntity
  8
EBENE_1
 62
   250
100
AcDbLine
 10
109.675993
 20
206.298691
 30
0.0
 11
109.675993
 21
211.988611
 31
0.0
  0
LINE
  5
19E
100
AcDbEntity
  8
EBENE_1
 62
   250
100
AcDbLine
 10
109.675993
 20
188.988637
 30
0.0
 11
109.675993
 21
194.387618
 31
0.0
  0
POLYLINE
  5
199
100
AcDbEntity
  8
EBENE_1
 62
   250
100
AcDb2dPolyline
 66
     1
 10
0.0
 20
0.0
 30
0.0
  0
VERTEX
  5
19A
100
AcDbEntity
  8
EBENE_1
 62
   250
100
AcDbVertex
100
AcDb2dVertex
 10
110.175532
 20
194.374527
 30
0.0
  0
VERTEX
  5
19B
100
AcDbEntity
  8
EBENE_1
 62
   250
100
AcDbVertex
100
AcDb2dVertex
 10
110.175532
 20
188.488581
 30
0.0
  0
VERTEX
  5
19C
100
AcDbEntity
  8
EBENE_1
 62
   250
100
AcDbVertex
100
AcDb2dVertex
 10
110.67576
 20
188.488581
 30
0.0
  0
SEQEND
  5
19D
100
AcDbEntity
  8
EBENE_1
 62
   250
  0
POLYLINE
  5
194
100
AcDbEntity
  8
EBENE_1
 62
   250
100
AcDb2dPolyline
 66
     1
 10
0.0
 20
0.0
 30
0.0
  0
VERTEX
  5
195
100
AcDbEntity
  8
EBENE_1
 62
   250
100
AcDbVertex
100
AcDb2dVertex
 10
110.67576
 20
212.488666
 30
0.0
  0
VERTEX
  5
196
100
AcDbEntity
  8
EBENE_1
 62
   250
100
AcDbVertex
100
AcDb2dVertex
 10
110.175532
 20
212.488666
 30
0.0
  0
VERTEX
  5
197
100
AcDbEntity
  8
EBENE_1
 62
   250
100
AcDbVertex
100
AcDb2dVertex
 10
110.175532
 20
206.232545
 30
0.0
  0
SEQEND
  5
198
100
AcDbEntity
  8
EBENE_1
 62
   250
  0
LINE
  5
193
100
AcDbEntity
  8
EBENE_1
 62
   250
100
AcDbLine
 10
110.67576
 20
188.488581
 30
0.0
 11
110.67576
 21
194.387618
 31
0.0
  0
LINE
  5
192
100
AcDbEntity
  8
EBENE_1
 62
   250
100
AcDbLine
 10
110.67576
 20
212.488666
 30
0.0
 11
110.67576
 21
206.2856
 31
0.0
  0
POLYLINE
  5
18D
100
AcDbEntity
  8
EBENE_1
 62
   250
100
AcDb2dPolyline
 66
     1
 10
0.0
 20
0.0
 30
0.0
  0
VERTEX
  5
18E
100
AcDbEntity
  8
EBENE_1
 62
   250
100
AcDbVertex
100
AcDb2dVertex
 10
111.675526
 20
206.271647
 30
0.0
  0
VERTEX
  5
18F
100
AcDbEntity
  8
EBENE_1
 62
   250
100
AcDbVertex
100
AcDb2dVertex
 10
111.675526
 20
212.488666
 30
0.0
  0
VERTEX
  5
190
100
AcDbEntity
  8
EBENE_1
 62
   250
100
AcDbVertex
100
AcDb2dVertex
 10
112.175754
 20
212.488666
 30
0.0
  0
SEQEND
  5
191
100
AcDbEntity
  8
EBENE_1
 62
   250
  0
POLYLINE
  5
188
100
AcDbEntity
  8
EBENE_1
 62
   250
100
AcDb2dPolyline
 66
     1
 10
0.0
 20
0.0
 30
0.0
  0
VERTEX
  5
189
100
AcDbEntity
  8
EBENE_1
 62
   250
100
AcDbVertex
100
AcDb2dVertex
 10
112.175754
 20
188.488581
 30
0.0
  0
VERTEX
  5
18A
100
AcDbEntity
  8
EBENE_1
 62
   250
100
AcDbVertex
100
AcDb2dVertex
 10
111.675526
 20
188.488581
 30
0.0
  0
VERTEX
  5
18B
100
AcDbEntity
  8
EBENE_1
 62
   250
100
AcDbVertex
100
AcDb2dVertex
 10
111.675526
 20
194.400537
 30
0.0
  0
SEQEND
  5
18C
100
AcDbEntity
  8
EBENE_1
 62
   250
  0
POLYLINE
  5
183
100
AcDbEntity
  8
EBENE_1
 62
   250
100
AcDb2dPolyline
 66
     1
 10
0.0
 20
0.0
 30
0.0
  0
VERTEX
  5
184
100
AcDbEntity
  8
EBENE_1
 62
   250
100
AcDbVertex
100
AcDb2dVertex
 10
112.175754
 20
194.374527
 30
0.0
  0
VERTEX
  5
185
100
AcDbEntity
  8
EBENE_1
 62
   250
100
AcDbVertex
100
AcDb2dVertex
 10
112.175754
 20
187.988698
 30
0.0
  0
VERTEX
  5
186
100
AcDbEntity
  8
EBENE_1
 62
   250
100
AcDbVertex
100
AcDb2dVertex
 10
122.675716
 20
187.988698
 30
0.0
  0
SEQEND
  5
187
100
AcDbEntity
  8
EBENE_1
 62
   250
  0
POLYLINE
  5
17D
100
AcDbEntity
  8
EBENE_1
 62
   250
100
AcDb2dPolyline
 66
     1
 10
0.0
 20
0.0
 30
0.0
  0
VERTEX
  5
17E
100
AcDbEntity
  8
EBENE_1
 62
   250
100
AcDbVertex
100
AcDb2dVertex
 10
122.675716
 20
187.988698
 30
0.0
  0
VERTEX
  5
17F
100
AcDbEntity
  8
EBENE_1
 62
   250
100
AcDbVertex
100
AcDb2dVertex
 10
122.675716
 20
212.98855
 30
0.0
  0
VERTEX
  5
180
100
AcDbEntity
  8
EBENE_1
 62
   250
100
AcDbVertex
100
AcDb2dVertex
 10
112.175754
 20
212.98855
 30
0.0
  0
VERTEX
  5
181
100
AcDbEntity
  8
EBENE_1
 62
   250
100
AcDbVertex
100
AcDb2dVertex
 10
112.175754
 20
206.298691
 30
0.0
  0
SEQEND
  5
182
100
AcDbEntity
  8
EBENE_1
 62
   250
  0
LINE
  5
17C
100
AcDbEntity
  8
EBENE_1
 62
   250
100
AcDbLine
 10
120.175955
 20
212.98855
 30
0.0
 11
120.175955
 21
210.310677
 31
0.0
  0
LINE
  5
17B
100
AcDbEntity
  8
EBENE_1
 62
   250
100
AcDbLine
 10
112.175754
 20
207.488627
 30
0.0
 11
119.695709
 21
207.488627
 31
0.0
  0
LINE
  5
17A
100
AcDbEntity
  8
EBENE_1
 62
   250
100
AcDbLine
 10
112.175754
 20
207.988683
 30
0.0
 11
119.68055
 21
207.988683
 31
0.0
  0
LINE
  5
179
100
AcDbEntity
  8
EBENE_1
 62
   250
100
AcDbLine
 10
117.675505
 20
208.194527
 30
0.0
 11
119.710867
 21
208.194527
 31
0.0
  0
LINE
  5
178
100
AcDbEntity
  8
EBENE_1
 62
   250
100
AcDbLine
 10
112.175754
 20
193.48862
 30
0.0
 11
119.710867
 21
193.48862
 31
0.0
  0
LINE
  5
177
100
AcDbEntity
  8
EBENE_1
 62
   250
100
AcDbLine
 10
117.675505
 20
192.878666
 30
0.0
 11
119.68744
 21
192.878666
 31
0.0
  0
LINE
  5
176
100
AcDbEntity
  8
EBENE_1
 62
   250
100
AcDbLine
 10
112.175754
 20
192.988565
 30
0.0
 11
119.68055
 21
192.988565
 31
0.0
  0
LINE
  5
175
100
AcDbEntity
  8
EBENE_1
 62
   250
100
AcDbLine
 10
120.175955
 20
190.346521
 30
0.0
 11
120.175955
 21
187.988698
 31
0.0
  0
LINE
  5
174
100
AcDbEntity
  8
EBENE_1
 62
   250
100
AcDbLine
 10
117.675505
 20
209.286622
 30
0.0
 11
118.792405
 21
209.286622
 31
0.0
  0
LINE
  5
173
100
AcDbEntity
  8
EBENE_1
 62
   250
100
AcDbLine
 10
117.675505
 20
209.488677
 30
0.0
 11
112.175754
 21
209.488677
 31
0.0
  0
LINE
  5
172
100
AcDbEntity
  8
EBENE_1
 62
   250
100
AcDbLine
 10
117.675505
 20
209.870566
 30
0.0
 11
118.792405
 21
209.870566
 31
0.0
  0
LINE
  5
171
100
AcDbEntity
  8
EBENE_1
 62
   250
100
AcDbLine
 10
118.792405
 20
211.597593
 30
0.0
 11
118.792405
 21
209.286622
 31
0.0
  0
LINE
  5
170
100
AcDbEntity
  8
EBENE_1
 62
   250
100
AcDbLine
 10
118.792405
 20
211.013649
 30
0.0
 11
117.675505
 21
211.013649
 31
0.0
  0
LINE
  5
16F
100
AcDbEntity
  8
EBENE_1
 62
   250
100
AcDbLine
 10
117.675505
 20
212.690549
 30
0.0
 11
117.675505
 21
208.194527
 31
0.0
  0
LINE
  5
16E
100
AcDbEntity
  8
EBENE_1
 62
   250
100
AcDbLine
 10
118.792405
 20
211.597593
 30
0.0
 11
117.675505
 21
211.597593
 31
0.0
  0
LINE
  5
16D
100
AcDbEntity
  8
EBENE_1
 62
   250
100
AcDbLine
 10
117.675505
 20
211.988611
 30
0.0
 11
112.175754
 21
211.988611
 31
0.0
  0
LINE
  5
16C
100
AcDbEntity
  8
EBENE_1
 62
   250
100
AcDbLine
 10
120.189735
 20
212.690549
 30
0.0
 11
117.675505
 21
212.690549
 31
0.0
  0
LINE
  5
16B
100
AcDbEntity
  8
EBENE_1
 62
   250
100
AcDbLine
 10
117.675505
 20
188.382644
 30
0.0
 11
120.189735
 21
188.382644
 31
0.0
  0
LINE
  5
16A
100
AcDbEntity
  8
EBENE_1
 62
   250
100
AcDbLine
 10
117.675505
 20
189.474567
 30
0.0
 11
118.792405
 21
189.474567
 31
0.0
  0
LINE
  5
169
100
AcDbEntity
  8
EBENE_1
 62
   250
100
AcDbLine
 10
117.675505
 20
190.058683
 30
0.0
 11
118.792405
 21
190.058683
 31
0.0
  0
LINE
  5
168
100
AcDbEntity
  8
EBENE_1
 62
   250
100
AcDbLine
 10
118.792405
 20
191.785537
 30
0.0
 11
118.792405
 21
189.474567
 31
0.0
  0
LINE
  5
167
100
AcDbEntity
  8
EBENE_1
 62
   250
100
AcDbLine
 10
118.792405
 20
191.227604
 30
0.0
 11
117.675505
 21
191.227604
 31
0.0
  0
LINE
  5
166
100
AcDbEntity
  8
EBENE_1
 62
   250
100
AcDbLine
 10
118.792405
 20
191.785537
 30
0.0
 11
117.675505
 21
191.785537
 31
0.0
  0
LINE
  5
165
100
AcDbEntity
  8
EBENE_1
 62
   250
100
AcDbLine
 10
117.675505
 20
192.878666
 30
0.0
 11
117.675505
 21
188.382644
 31
0.0
  0
LINE
  5
164
100
AcDbEntity
  8
EBENE_1
 62
   250
100
AcDbLine
 10
117.675505
 20
191.48857
 30
0.0
 11
112.175754
 21
191.48857
 31
0.0
  0
LINE
  5
163
100
AcDbEntity
  8
EBENE_1
 62
   250
100
AcDbLine
 10
117.675505
 20
188.988637
 30
0.0
 11
112.175754
 21
188.988637
 31
0.0
  0
SPLINE
  5
162
100
AcDbEntity
  8
EBENE_1
 62
   250
100
AcDbSpline
210
0.0
220
0.0
230
1.0
 70
     8
 71
     3
 72
    11
 73
     7
 74
     0
 42
0.00000001
 43
0.00000001
 40
0.0
 40
0.0
 40
0.0
 40
0.0
 40
1.0
 40
1.0
 40
1.0
 40
2.0
 40
2.0
 40
2.0
 40
2.0
 10
110.6757595486111
 20
188.48858100043401
 30
0.0
 10
110.6757595486111
 20
188.2124565972222
 30
0.0
 10
110.89969075520833
 20
187.9886976453993
 30
0.0
 10
111.17598741319443
 20
187.9886976453993
 30
0.0
 10
111.45159505208332
 20
187.9886976453993
 30
0.0
 10
111.67552625868055
 20
188.2124565972222
 30
0.0
 10
111.67552625868055
 20
188.48858100043401
 30
0.0
  0
SPLINE
  5
161
100
AcDbEntity
  8
EBENE_1
 62
   250
100
AcDbSpline
210
0.0
220
0.0
230
1.0
 70
     8
 71
     3
 72
    11
 73
     7
 74
     0
 42
0.00000001
 43
0.00000001
 40
0.0
 40
0.0
 40
0.0
 40
0.0
 40
1.0
 40
1.0
 40
1.0
 40
2.0
 40
2.0
 40
2.0
 40
2.0
 10
111.67552625868055
 20
212.48866644965275
 30
0.0
 10
111.67552625868055
 20
212.76479085286456
 30
0.0
 10
111.45159505208332
 20
212.98854980468749
 30
0.0
 10
111.17598741319443
 20
212.98854980468749
 30
0.0
 10
110.89969075520833
 20
212.98854980468749
 30
0.0
 10
110.6757595486111
 20
212.76479085286456
 30
0.0
 10
110.6757595486111
 20
212.48866644965275
 30
0.0
  0
LINE
  5
160
100
AcDbEntity
  8
EBENE_1
 62
   250
100
AcDbLine
 10
108.675537
 20
211.988611
 30
0.0
 11
108.675537
 21
188.988637
 31
0.0
  0
LINE
  5
15F
100
AcDbEntity
  8
EBENE_1
 62
   250
100
AcDbLine
 10
107.67577
 20
211.988611
 30
0.0
 11
107.67577
 21
188.988637
 31
0.0
  0
LINE
  5
15E
100
AcDbEntity
  8
EBENE_1
 62
   250
100
AcDbLine
 10
106.676004
 20
211.988611
 30
0.0
 11
106.676004
 21
188.988637
 31
0.0
  0
LINE
  5
15D
100
AcDbEntity
  8
EBENE_1
 62
   250
100
AcDbLine
 10
105.675548
 20
211.988611
 30
0.0
 11
105.675548
 21
188.988637
 31
0.0
  0
LINE
  5
15C
100
AcDbEntity
  8
EBENE_1
 62
   250
100
AcDbLine
 10
104.675954
 20
211.988611
 30
0.0
 11
104.675954
 21
188.988637
 31
0.0
  0
LINE
  5
15B
100
AcDbEntity
  8
EBENE_1
 62
   250
100
AcDbLine
 10
103.675842
 20
211.988611
 30
0.0
 11
103.675842
 21
188.988637
 31
0.0
  0
LINE
  5
15A
100
AcDbEntity
  8
EBENE_1
 62
   250
100
AcDbLine
 10
102.675731
 20
211.988611
 30
0.0
 11
102.675731
 21
188.988637
 31
0.0
  0
POLYLINE
  5
145
100
AcDbEntity
  8
EBENE_1
 62
   250
100
AcDb2dPolyline
 66
     1
 10
0.0
 20
0.0
 30
0.0
  0
VERTEX
  5
146
100
AcDbEntity
  8
EBENE_1
 62
   250
100
AcDbVertex
100
AcDb2dVertex
 10
110.175532
 20
212.488666
 30
0.0
  0
VERTEX
  5
147
100
AcDbEntity
  8
EBENE_1
 62
   250
100
AcDbVertex
100
AcDb2dVertex
 10
109.675993
 20
211.988611
 30
0.0
  0
VERTEX
  5
148
100
AcDbEntity
  8
EBENE_1
 62
   250
100
AcDbVertex
100
AcDb2dVertex
 10
109.175765
 20
212.488666
 30
0.0
  0
VERTEX
  5
149
100
AcDbEntity
  8
EBENE_1
 62
   250
100
AcDbVertex
100
AcDb2dVertex
 10
108.675537
 20
211.988611
 30
0.0
  0
VERTEX
  5
14A
100
AcDbEntity
  8
EBENE_1
 62
   250
100
AcDbVertex
100
AcDb2dVertex
 10
108.175998
 20
212.488666
 30
0.0
  0
VERTEX
  5
14B
100
AcDbEntity
  8
EBENE_1
 62
   250
100
AcDbVertex
100
AcDb2dVertex
 10
107.67577
 20
211.988611
 30
0.0
  0
VERTEX
  5
14C
100
AcDbEntity
  8
EBENE_1
 62
   250
100
AcDbVertex
100
AcDb2dVertex
 10
107.175543
 20
212.488666
 30
0.0
  0
VERTEX
  5
14D
100
AcDbEntity
  8
EBENE_1
 62
   250
100
AcDbVertex
100
AcDb2dVertex
 10
106.676004
 20
211.988611
 30
0.0
  0
VERTEX
  5
14E
100
AcDbEntity
  8
EBENE_1
 62
   250
100
AcDbVertex
100
AcDb2dVertex
 10
106.175776
 20
212.488666
 30
0.0
  0
VERTEX
  5
14F
100
AcDbEntity
  8
EBENE_1
 62
   250
100
AcDbVertex
100
AcDb2dVertex
 10
105.675548
 20
211.988611
 30
0.0
  0
VERTEX
  5
150
100
AcDbEntity
  8
EBENE_1
 62
   250
100
AcDbVertex
100
AcDb2dVertex
 10
105.176009
 20
212.488666
 30
0.0
  0
VERTEX
  5
151
100
AcDbEntity
  8
EBENE_1
 62
   250
100
AcDbVertex
100
AcDb2dVertex
 10
104.675954
 20
211.988611
 30
0.0
  0
VERTEX
  5
152
100
AcDbEntity
  8
EBENE_1
 62
   250
100
AcDbVertex
100
AcDb2dVertex
 10
104.175726
 20
212.488666
 30
0.0
  0
VERTEX
  5
153
100
AcDbEntity
  8
EBENE_1
 62
   250
100
AcDbVertex
100
AcDb2dVertex
 10
103.675842
 20
211.988611
 30
0.0
  0
VERTEX
  5
154
100
AcDbEntity
  8
EBENE_1
 62
   250
100
AcDbVertex
100
AcDb2dVertex
 10
103.175959
 20
212.488666
 30
0.0
  0
VERTEX
  5
155
100
AcDbEntity
  8
EBENE_1
 62
   250
100
AcDbVertex
100
AcDb2dVertex
 10
102.675731
 20
211.988611
 30
0.0
  0
VERTEX
  5
156
100
AcDbEntity
  8
EBENE_1
 62
   250
100
AcDbVertex
100
AcDb2dVertex
 10
102.175848
 20
212.488666
 30
0.0
  0
VERTEX
  5
157
100
AcDbEntity
  8
EBENE_1
 62
   250
100
AcDbVertex
100
AcDb2dVertex
 10
101.675964
 20
211.988611
 30
0.0
  0
VERTEX
  5
158
100
AcDbEntity
  8
EBENE_1
 62
   250
100
AcDbVertex
100
AcDb2dVertex
 10
101.675964
 20
208.988622
 30
0.0
  0
SEQEND
  5
159
100
AcDbEntity
  8
EBENE_1
 62
   250
  0
POLYLINE
  5
130
100
AcDbEntity
  8
EBENE_1
 62
   250
100
AcDb2dPolyline
 66
     1
 10
0.0
 20
0.0
 30
0.0
  0
VERTEX
  5
131
100
AcDbEntity
  8
EBENE_1
 62
   250
100
AcDbVertex
100
AcDb2dVertex
 10
110.175532
 20
188.488581
 30
0.0
  0
VERTEX
  5
132
100
AcDbEntity
  8
EBENE_1
 62
   250
100
AcDbVertex
100
AcDb2dVertex
 10
109.675993
 20
188.988637
 30
0.0
  0
VERTEX
  5
133
100
AcDbEntity
  8
EBENE_1
 62
   250
100
AcDbVertex
100
AcDb2dVertex
 10
109.175765
 20
188.488581
 30
0.0
  0
VERTEX
  5
134
100
AcDbEntity
  8
EBENE_1
 62
   250
100
AcDbVertex
100
AcDb2dVertex
 10
108.675537
 20
188.988637
 30
0.0
  0
VERTEX
  5
135
100
AcDbEntity
  8
EBENE_1
 62
   250
100
AcDbVertex
100
AcDb2dVertex
 10
108.175998
 20
188.488581
 30
0.0
  0
VERTEX
  5
136
100
AcDbEntity
  8
EBENE_1
 62
   250
100
AcDbVertex
100
AcDb2dVertex
 10
107.67577
 20
188.988637
 30
0.0
  0
VERTEX
  5
137
100
AcDbEntity
  8
EBENE_1
 62
   250
100
AcDbVertex
100
AcDb2dVertex
 10
107.175543
 20
188.488581
 30
0.0
  0
VERTEX
  5
138
100
AcDbEntity
  8
EBENE_1
 62
   250
100
AcDbVertex
100
AcDb2dVertex
 10
106.676004
 20
188.988637
 30
0.0
  0
VERTEX
  5
139
100
AcDbEntity
  8
EBENE_1
 62
   250
100
AcDbVertex
100
AcDb2dVertex
 10
106.175776
 20
188.488581
 30
0.0
  0
VERTEX
  5
13A
100
AcDbEntity
  8
EBENE_1
 62
   250
100
AcDbVertex
100
AcDb2dVertex
 10
105.675548
 20
188.988637
 30
0.0
  0
VERTEX
  5
13B
100
AcDbEntity
  8
EBENE_1
 62
   250
100
AcDbVertex
100
AcDb2dVertex
 10
105.176009
 20
188.488581
 30
0.0
  0
VERTEX
  5
13C
100
AcDbEntity
  8
EBENE_1
 62
   250
100
AcDbVertex
100
AcDb2dVertex
 10
104.675954
 20
188.988637
 30
0.0
  0
VERTEX
  5
13D
100
AcDbEntity
  8
EBENE_1
 62
   250
100
AcDbVertex
100
AcDb2dVertex
 10
104.175726
 20
188.488581
 30
0.0
  0
VERTEX
  5
13E
100
AcDbEntity
  8
EBENE_1
 62
   250
100
AcDbVertex
100
AcDb2dVertex
 10
103.675842
 20
188.988637
 30
0.0
  0
VERTEX
  5
13F
100
AcDbEntity
  8
EBENE_1
 62
   250
100
AcDbVertex
100
AcDb2dVertex
 10
103.175959
 20
188.488581
 30
0.0
  0
VERTEX
  5
140
100
AcDbEntity
  8
EBENE_1
 62
   250
100
AcDbVertex
100
AcDb2dVertex
 10
102.675731
 20
188.988637
 30
0.0
  0
VERTEX
  5
141
100
AcDbEntity
  8
EBENE_1
 62
   250
100
AcDbVertex
100
AcDb2dVertex
 10
102.175848
 20
188.488581
 30
0.0
  0
VERTEX
  5
142
100
AcDbEntity
  8
EBENE_1
 62
   250
100
AcDbVertex
100
AcDb2dVertex
 10
101.675964
 20
188.988637
 30
0.0
  0
VERTEX
  5
143
100
AcDbEntity
  8
EBENE_1
 62
   250
100
AcDbVertex
100
AcDb2dVertex
 10
101.675964
 20
208.988622
 30
0.0
  0
SEQEND
  5
144
100
AcDbEntity
  8
EBENE_1
 62
   250
  0
POLYLINE
  5
128
100
AcDbEntity
  8
EBENE_1
 62
   250
100
AcDb2dPolyline
 66
     1
 10
0.0
 20
0.0
 30
0.0
  0
VERTEX
  5
129
100
AcDbEntity
  8
EBENE_1
 62
   250
100
AcDbVertex
100
AcDb2dVertex
 10
101.675964
 20
211.988611
 30
0.0
  0
VERTEX
  5
12A
100
AcDbEntity
  8
EBENE_1
 62
   250
100
AcDbVertex
100
AcDb2dVertex
 10
100.675853
 20
211.488555
 30
0.0
  0
VERTEX
  5
12B
100
AcDbEntity
  8
EBENE_1
 62
   250
100
AcDbVertex
100
AcDb2dVertex
 10
96.675753
 20
211.488555
 30
0.0
  0
VERTEX
  5
12C
100
AcDbEntity
  8
EBENE_1
 62
   250
100
AcDbVertex
100
AcDb2dVertex
 10
96.675753
 20
189.488692
 30
0.0
  0
VERTEX
  5
12D
100
AcDbEntity
  8
EBENE_1
 62
   250
100
AcDbVertex
100
AcDb2dVertex
 10
100.675853
 20
189.488692
 30
0.0
  0
VERTEX
  5
12E
100
AcDbEntity
  8
EBENE_1
 62
   250
100
AcDbVertex
100
AcDb2dVertex
 10
101.675964
 20
188.988637
 30
0.0
  0
SEQEND
  5
12F
100
AcDbEntity
  8
EBENE_1
 62
   250
  0
LINE
  5
127
100
AcDbEntity
  8
EBENE_1
 62
   250
100
AcDbLine
 10
114.076413
 20
179.179244
 30
0.0
 11
0.084233
 21
179.167531
 31
0.0
  0
LINE
  5
126
100
AcDbEntity
  8
EBENE_1
 62
   250
100
AcDbLine
 10
-35.915637
 20
144.670584
 30
0.0
 11
-35.915637
 21
133.670394
 31
0.0
  0
POLYLINE
  5
11D
100
AcDbEntity
  8
EBENE_1
 62
   250
100
AcDb2dPolyline
 66
     1
 10
0.0
 20
0.0
 30
0.0
 70
     1
  0
VERTEX
  5
11E
100
AcDbEntity
  8
EBENE_1
 62
   250
100
AcDbVertex
100
AcDb2dVertex
 10
-37.040633
 20
134.67085
 30
0.0
  0
VERTEX
  5
11F
100
AcDbEntity
  8
EBENE_1
 62
   250
100
AcDbVertex
100
AcDb2dVertex
 10
-37.040633
 20
143.670817
 30
0.0
  0
VERTEX
  5
120
100
AcDbEntity
  8
EBENE_1
 62
   250
100
AcDbVertex
100
AcDb2dVertex
 10
-35.915637
 20
144.670584
 30
0.0
  0
VERTEX
  5
121
100
AcDbEntity
  8
EBENE_1
 62
   250
100
AcDbVertex
100
AcDb2dVertex
 10
-13.97813
 20
144.670584
 30
0.0
  0
VERTEX
  5
122
100
AcDbEntity
  8
EBENE_1
 62
   250
100
AcDbVertex
100
AcDb2dVertex
 10
-13.97813
 20
133.670394
 30
0.0
  0
VERTEX
  5
123
100
AcDbEntity
  8
EBENE_1
 62
   250
100
AcDbVertex
100
AcDb2dVertex
 10
-35.915637
 20
133.670394
 30
0.0
  0
VERTEX
  5
124
100
AcDbEntity
  8
EBENE_1
 62
   250
100
AcDbVertex
100
AcDb2dVertex
 10
-37.040633
 20
134.67085
 30
0.0
  0
SEQEND
  5
125
100
AcDbEntity
  8
EBENE_1
 62
   250
  0
POLYLINE
  5
117
100
AcDbEntity
  8
EBENE_1
 62
   250
100
AcDb2dPolyline
 66
     1
 10
0.0
 20
0.0
 30
0.0
 70
     1
  0
VERTEX
  5
118
100
AcDbEntity
  8
EBENE_1
 62
   250
100
AcDbVertex
100
AcDb2dVertex
 10
-13.97813
 20
109.170942
 30
0.0
  0
VERTEX
  5
119
100
AcDbEntity
  8
EBENE_1
 62
   250
100
AcDbVertex
100
AcDb2dVertex
 10
-11.165554
 20
109.170942
 30
0.0
  0
VERTEX
  5
11A
100
AcDbEntity
  8
EBENE_1
 62
   250
100
AcDbVertex
100
AcDb2dVertex
 10
-11.165554
 20
169.170553
 30
0.0
  0
VERTEX
  5
11B
100
AcDbEntity
  8
EBENE_1
 62
   250
100
AcDbVertex
100
AcDb2dVertex
 10
-13.97813
 20
169.170553
 30
0.0
  0
SEQEND
  5
11C
100
AcDbEntity
  8
EBENE_1
 62
   250
  0
POLYLINE
  5
111
100
AcDbEntity
  8
EBENE_1
 62
   250
100
AcDb2dPolyline
 66
     1
 10
0.0
 20
0.0
 30
0.0
 70
     1
  0
VERTEX
  5
112
100
AcDbEntity
  8
EBENE_1
 62
   250
100
AcDbVertex
100
AcDb2dVertex
 10
-11.165554
 20
89.170785
 30
0.0
  0
VERTEX
  5
113
100
AcDbEntity
  8
EBENE_1
 62
   250
100
AcDbVertex
100
AcDb2dVertex
 10
0.084233
 20
89.170785
 30
0.0
  0
VERTEX
  5
114
100
AcDbEntity
  8
EBENE_1
 62
   250
100
AcDbVertex
100
AcDb2dVertex
 10
0.084233
 20
189.170538
 30
0.0
  0
VERTEX
  5
115
100
AcDbEntity
  8
EBENE_1
 62
   250
100
AcDbVertex
100
AcDb2dVertex
 10
-11.165554
 20
189.170538
 30
0.0
  0
SEQEND
  5
116
100
AcDbEntity
  8
EBENE_1
 62
   250
  0
POLYLINE
  5
10B
100
AcDbEntity
  8
EBENE_1
 62
   250
100
AcDb2dPolyline
 66
     1
 10
0.0
 20
0.0
 30
0.0
  0
VERTEX
  5
10C
100
AcDbEntity
  8
EBENE_1
 62
   250
100
AcDbVertex
100
AcDb2dVertex
 10
0.084233
 20
99.170519
 30
0.0
  0
VERTEX
  5
10D
100
AcDbEntity
  8
EBENE_1
 62
   250
100
AcDbVertex
100
AcDb2dVertex
 10
122.556516
 20
99.170519
 30
0.0
  0
VERTEX
  5
10E
100
AcDbEntity
  8
EBENE_1
 62
   250
100
AcDbVertex
100
AcDb2dVertex
 10
122.556516
 20
179.170631
 30
0.0
  0
VERTEX
  5
10F
100
AcDbEntity
  8
EBENE_1
 62
   250
100
AcDbVertex
100
AcDb2dVertex
 10
121.931231
 20
179.170631
 30
0.0
  0
SEQEND
  5
110
100
AcDbEntity
  8
EBENE_1
 62
   250
  0
POLYLINE
  5
105
100
AcDbEntity
  8
EBENE_1
 62
   250
100
AcDb2dPolyline
 66
     1
 10
0.0
 20
0.0
 30
0.0
 70
     1
  0
VERTEX
  5
106
100
AcDbEntity
  8
EBENE_1
 62
   250
100
AcDbVertex
100
AcDb2dVertex
 10
122.83488
 20
99.170519
 30
0.0
  0
VERTEX
  5
107
100
AcDbEntity
  8
EBENE_1
 62
   250
100
AcDbVertex
100
AcDb2dVertex
 10
127.834402
 20
99.170519
 30
0.0
  0
VERTEX
  5
108
100
AcDbEntity
  8
EBENE_1
 62
   250
100
AcDbVertex
100
AcDb2dVertex
 10
127.834402
 20
219.170601
 30
0.0
  0
VERTEX
  5
109
100
AcDbEntity
  8
EBENE_1
 62
   250
100
AcDbVertex
100
AcDb2dVertex
 10
122.83488
 20
219.170601
 30
0.0
  0
SEQEND
  5
10A
100
AcDbEntity
  8
EBENE_1
 62
   250
  0
POLYLINE
  5
FF
100
AcDbEntity
  8
EBENE_1
 62
   250
100
AcDb2dPolyline
 66
     1
 10
0.0
 20
0.0
 30
0.0
  0
VERTEX
  5
100
100
AcDbEntity
  8
EBENE_1
 62
   250
100
AcDbVertex
100
AcDb2dVertex
 10
214.834776
 20
181.170509
 30
0.0
  0
VERTEX
  5
101
100
AcDbEntity
  8
EBENE_1
 62
   250
100
AcDbVertex
100
AcDb2dVertex
 10
214.834776
 20
219.170601
 30
0.0
  0
VERTEX
  5
102
100
AcDbEntity
  8
EBENE_1
 62
   250
100
AcDbVertex
100
AcDb2dVertex
 10
199.834831
 20
219.170601
 30
0.0
  0
VERTEX
  5
103
100
AcDbEntity
  8
EBENE_1
 62
   250
100
AcDbVertex
100
AcDb2dVertex
 10
199.834831
 20
142.170822
 30
0.0
  0
SEQEND
  5
104
100
AcDbEntity
  8
EBENE_1
 62
   250
  0
LINE
  5
FE
100
AcDbEntity
  8
EBENE_1
 62
   250
100
AcDbLine
 10
214.827197
 20
138.762245
 30
0.0
 11
214.827197
 21
182.450362
 31
0.0
  0
LINE
  5
FD
100
AcDbEntity
  8
EBENE_1
 62
   250
100
AcDbLine
 10
127.512975
 20
142.170822
 30
0.0
 11
214.834776
 21
142.170822
 31
0.0
  0
POLYLINE
  5
F6
100
AcDbEntity
  8
EBENE_1
 62
   250
100
AcDb2dPolyline
 66
     1
 10
0.0
 20
0.0
 30
0.0
  0
VERTEX
  5
F7
100
AcDbEntity
  8
EBENE_1
 62
   250
100
AcDbVertex
100
AcDb2dVertex
 10
199.834831
 20
142.170822
 30
0.0
  0
VERTEX
  5
F8
100
AcDbEntity
  8
EBENE_1
 62
   250
100
AcDbVertex
100
AcDb2dVertex
 10
199.834831
 20
99.170519
 30
0.0
  0
VERTEX
  5
F9
100
AcDbEntity
  8
EBENE_1
 62
   250
100
AcDbVertex
100
AcDb2dVertex
 10
214.834776
 20
99.170519
 30
0.0
  0
VERTEX
  5
FA
100
AcDbEntity
  8
EBENE_1
 62
   250
100
AcDbVertex
100
AcDb2dVertex
 10
214.834776
 20
139.170833
 30
0.0
  0
VERTEX
  5
FB
100
AcDbEntity
  8
EBENE_1
 62
   250
100
AcDbVertex
100
AcDb2dVertex
 10
204.834353
 20
139.170833
 30
0.0
  0
SEQEND
  5
FC
100
AcDbEntity
  8
EBENE_1
 62
   250
  0
POLYLINE
  5
F0
100
AcDbEntity
  8
EBENE_1
 62
   250
100
AcDb2dPolyline
 66
     1
 10
0.0
 20
0.0
 30
0.0
 70
     1
  0
VERTEX
  5
F1
100
AcDbEntity
  8
EBENE_1
 62
   250
100
AcDbVertex
100
AcDb2dVertex
 10
127.834402
 20
99.170519
 30
0.0
  0
VERTEX
  5
F2
100
AcDbEntity
  8
EBENE_1
 62
   250
100
AcDbVertex
100
AcDb2dVertex
 10
199.834831
 20
99.170519
 30
0.0
  0
VERTEX
  5
F3
100
AcDbEntity
  8
EBENE_1
 62
   250
100
AcDbVertex
100
AcDb2dVertex
 10
199.834831
 20
219.170601
 30
0.0
  0
VERTEX
  5
F4
100
AcDbEntity
  8
EBENE_1
 62
   250
100
AcDbVertex
100
AcDb2dVertex
 10
127.834402
 20
219.170601
 30
0.0
  0
SEQEND
  5
F5
100
AcDbEntity
  8
EBENE_1
 62
   250
  0
LINE
  5
EF
100
AcDbEntity
  8
EBENE_1
 62
   250
100
AcDbLine
 10
214.834776
 20
212.170684
 30
0.0
 11
122.83488
 21
212.170684
 31
0.0
  0
POLYLINE
  5
EA
100
AcDbEntity
  8
EBENE_1
 62
   250
100
AcDb2dPolyline
 66
     1
 10
0.0
 20
0.0
 30
0.0
  0
VERTEX
  5
EB
100
AcDbEntity
  8
EBENE_1
 62
   250
100
AcDbVertex
100
AcDb2dVertex
 10
214.834776
 20
152.170729
 30
0.0
  0
VERTEX
  5
EC
100
AcDbEntity
  8
EBENE_1
 62
   250
100
AcDbVertex
100
AcDb2dVertex
 10
214.834776
 20
142.170822
 30
0.0
  0
VERTEX
  5
ED
100
AcDbEntity
  8
EBENE_1
 62
   250
100
AcDbVertex
100
AcDb2dVertex
 10
204.834353
 20
142.170822
 30
0.0
  0
SEQEND
  5
EE
100
AcDbEntity
  8
EBENE_1
 62
   250
  0
LINE
  5
E9
100
AcDbEntity
  8
EBENE_1
 62
   250
100
AcDbLine
 10
214.834776
 20
168.170441
 30
0.0
 11
214.834776
 21
178.17052
 31
0.0
  0
LINE
  5
E8
100
AcDbEntity
  8
EBENE_1
 62
   250
100
AcDbLine
 10
214.834776
 20
155.170718
 30
0.0
 11
214.834776
 21
165.170452
 31
0.0
  0
LINE
  5
E7
100
AcDbEntity
  8
EBENE_1
 62
   250
100
AcDbLine
 10
-11.165554
 20
99.170519
 30
0.0
 11
-11.165554
 21
179.170631
 31
0.0
  0
MTEXT
  5
E6
100
AcDbEntity
  8
EBENE_1
 62
   250
100
AcDbMText
 10
-52.979884
 20
142.345374
 30
0.0
 40
3.674769
 41
0.0
 71
     1
 72
     2
  1
\fMyriad Roman|b0|i0; 11k6
  7
STD
210
0.0
220
0.0
230
1.0
 11
1.000001
 21
0.0
 31
0.0
 73
     1
 44
1.0
  0
POLYLINE
  5
E1
100
AcDbEntity
  8
EBENE_1
 62
   250
100
AcDb2dPolyline
 66
     1
 10
0.0
 20
0.0
 30
0.0
 70
     1
  0
VERTEX
  5
E2
100
AcDbEntity
  8
EBENE_1
 62
   250
100
AcDbVertex
100
AcDb2dVertex
 10
-46.502416
 20
133.736195
 30
0.0
  0
VERTEX
  5
E3
100
AcDbEntity
  8
EBENE_1
 62
   250
100
AcDbVertex
100
AcDb2dVertex
 10
-45.381037
 20
129.735061
 30
0.0
  0
VERTEX
  5
E4
100
AcDbEntity
  8
EBENE_1
 62
   250
100
AcDbVertex
100
AcDb2dVertex
 10
-47.624139
 20
129.735061
 30
0.0
  0
SEQEND
  5
E5
100
AcDbEntity
  8
EBENE_1
 62
   250
  0
HATCH
  5
E0
100
AcDbEntity
  8
EBENE_1
 62
   250
100
AcDbHatch
 10
0.0
 20
0.0
 30
0.0
210
0.0
220
0.0
230
1.0
  2
SOLID
 70
     1
 71
     0
 91
        1
 92
        3
 72
     0
 73
     1
 93
        3
 10
-46.502415635850689
 20
133.73619520399305
 10
-45.381037055121524
 20
129.7350613064236
 10
-47.624138726128471
 20
129.7350613064236
 97
        0
 75
     0
 76
     1
 98
        1
 10
0.0
 20
0.0
  0
LINE
  5
DF
100
AcDbEntity
  8
EBENE_1
 62
   250
100
AcDbLine
 10
-46.415082
 20
144.737074
 30
0.0
 11
-46.415082
 21
152.958967
 31
0.0
  0
POLYLINE
  5
DA
100
AcDbEntity
  8
EBENE_1
 62
   250
100
AcDb2dPolyline
 66
     1
 10
0.0
 20
0.0
 30
0.0
 70
     1
  0
VERTEX
  5
DB
100
AcDbEntity
  8
EBENE_1
 62
   250
100
AcDbVertex
100
AcDb2dVertex
 10
-46.415082
 20
144.656114
 30
0.0
  0
VERTEX
  5
DC
100
AcDbEntity
  8
EBENE_1
 62
   250
100
AcDbVertex
100
AcDb2dVertex
 10
-47.536806
 20
148.656559
 30
0.0
  0
VERTEX
  5
DD
100
AcDbEntity
  8
EBENE_1
 62
   250
100
AcDbVertex
100
AcDb2dVertex
 10
-45.293704
 20
148.656559
 30
0.0
  0
SEQEND
  5
DE
100
AcDbEntity
  8
EBENE_1
 62
   250
  0
HATCH
  5
D9
100
AcDbEntity
  8
EBENE_1
 62
   250
100
AcDbHatch
 10
0.0
 20
0.0
 30
0.0
210
0.0
220
0.0
230
1.0
  2
SOLID
 70
     1
 71
     0
 91
        1
 92
        3
 72
     0
 73
     1
 93
        3
 10
-46.41508246527777
 20
144.65611436631943
 10
-47.536805555555553
 20
148.65655924479165
 10
-45.293703884548606
 20
148.65655924479165
 97
        0
 75
     0
 76
     1
 98
        1
 10
0.0
 20
0.0
  0
LINE
  5
D8
100
AcDbEntity
  8
EBENE_1
 62
   250
100
AcDbLine
 10
-61.456025
 20
136.624219
 30
0.0
 11
-61.456025
 21
109.02487
 31
0.0
  0
LINE
  5
D7
100
AcDbEntity
  8
EBENE_1
 62
   250
100
AcDbLine
 10
-13.415546
 20
169.170553
 30
0.0
 11
-61.288076
 21
169.170553
 31
0.0
  0
LINE
  5
D6
100
AcDbEntity
  8
EBENE_1
 62
   250
100
AcDbLine
 10
-13.97813
 20
109.170942
 30
0.0
 11
-61.382472
 21
109.170942
 31
0.0
  0
MTEXT
  5
D5
100
AcDbEntity
  8
EBENE_1
 62
   250
100
AcDbMText
 10
73.372782
 20
142.741904
 30
0.0
 40
3.674769
 41
0.0
 71
     1
 72
     2
  1
\fMyriad Roman|b0|i0; 80.0 
  7
STD
210
0.0
220
0.0
230
1.0
 11
1.000001
 21
0.0
 31
0.0
 73
     1
 44
1.0
  0
POLYLINE
  5
D0
100
AcDbEntity
  8
EBENE_1
 62
   250
100
AcDb2dPolyline
 66
     1
 10
0.0
 20
0.0
 30
0.0
 70
     1
  0
VERTEX
  5
D1
100
AcDbEntity
  8
EBENE_1
 62
   250
100
AcDbVertex
100
AcDb2dVertex
 10
78.772625
 20
179.170631
 30
0.0
  0
VERTEX
  5
D2
100
AcDbEntity
  8
EBENE_1
 62
   250
100
AcDbVertex
100
AcDb2dVertex
 10
79.894004
 20
175.169497
 30
0.0
  0
VERTEX
  5
D3
100
AcDbEntity
  8
EBENE_1
 62
   250
100
AcDbVertex
100
AcDb2dVertex
 10
77.65073
 20
175.169497
 30
0.0
  0
SEQEND
  5
D4
100
AcDbEntity
  8
EBENE_1
 62
   250
  0
HATCH
  5
CF
100
AcDbEntity
  8
EBENE_1
 62
   250
100
AcDbHatch
 10
0.0
 20
0.0
 30
0.0
210
0.0
220
0.0
230
1.0
  2
SOLID
 70
     1
 71
     0
 91
        1
 92
        3
 72
     0
 73
     1
 93
        3
 10
78.772625054253467
 20
179.17063123914929
 10
79.894003634982639
 20
175.16949734157984
 10
77.650729709201386
 20
175.16949734157984
 97
        0
 75
     0
 76
     1
 98
        1
 10
0.0
 20
0.0
  0
LINE
  5
CE
100
AcDbEntity
  8
EBENE_1
 62
   250
100
AcDbLine
 10
78.772625
 20
143.768658
 30
0.0
 11
78.772625
 21
179.170631
 31
0.0
  0
POLYLINE
  5
C9
100
AcDbEntity
  8
EBENE_1
 62
   250
100
AcDb2dPolyline
 66
     1
 10
0.0
 20
0.0
 30
0.0
 70
     1
  0
VERTEX
  5
CA
100
AcDbEntity
  8
EBENE_1
 62
   250
100
AcDbVertex
100
AcDb2dVertex
 10
78.772625
 20
99.170519
 30
0.0
  0
VERTEX
  5
CB
100
AcDbEntity
  8
EBENE_1
 62
   250
100
AcDbVertex
100
AcDb2dVertex
 10
77.65073
 20
103.171653
 30
0.0
  0
VERTEX
  5
CC
100
AcDbEntity
  8
EBENE_1
 62
   250
100
AcDbVertex
100
AcDb2dVertex
 10
79.894004
 20
103.171653
 30
0.0
  0
SEQEND
  5
CD
100
AcDbEntity
  8
EBENE_1
 62
   250
  0
HATCH
  5
C8
100
AcDbEntity
  8
EBENE_1
 62
   250
100
AcDbHatch
 10
0.0
 20
0.0
 30
0.0
210
0.0
220
0.0
230
1.0
  2
SOLID
 70
     1
 71
     0
 91
        1
 92
        3
 72
     0
 73
     1
 93
        3
 10
78.772625054253467
 20
99.170518663194429
 10
77.650729709201386
 20
103.17165256076387
 10
79.894003634982639
 20
103.17165256076387
 97
        0
 75
     0
 76
     1
 98
        1
 10
0.0
 20
0.0
  0
LINE
  5
C7
100
AcDbEntity
  8
EBENE_1
 62
   250
100
AcDbLine
 10
78.772625
 20
137.226421
 30
0.0
 11
78.772625
 21
99.170519
 31
0.0
  0
MTEXT
  5
C6
100
AcDbEntity
  8
EBENE_1
 62
   250
100
AcDbMText
 10
162.334966
 20
233.845388
 30
0.0
 40
3.674769
 41
0.0
 71
     1
 72
     2
  1
\fMyriad Roman|b0|i0; 92.0 
  7
STD
210
0.0
220
0.0
230
1.0
 11
1.000001
 21
0.0
 31
0.0
 73
     1
 44
1.0
  0
POLYLINE
  5
C1
100
AcDbEntity
  8
EBENE_1
 62
   250
100
AcDb2dPolyline
 66
     1
 10
0.0
 20
0.0
 30
0.0
 70
     1
  0
VERTEX
  5
C2
100
AcDbEntity
  8
EBENE_1
 62
   250
100
AcDbVertex
100
AcDb2dVertex
 10
122.83488
 20
231.170558
 30
0.0
  0
VERTEX
  5
C3
100
AcDbEntity
  8
EBENE_1
 62
   250
100
AcDbVertex
100
AcDb2dVertex
 10
126.836013
 20
232.167569
 30
0.0
  0
VERTEX
  5
C4
100
AcDbEntity
  8
EBENE_1
 62
   250
100
AcDbVertex
100
AcDb2dVertex
 10
126.836013
 20
230.173547
 30
0.0
  0
SEQEND
  5
C5
100
AcDbEntity
  8
EBENE_1
 62
   250
  0
HATCH
  5
C0
100
AcDbEntity
  8
EBENE_1
 62
   250
100
AcDbHatch
 10
0.0
 20
0.0
 30
0.0
210
0.0
220
0.0
230
1.0
  2
SOLID
 70
     1
 71
     0
 91
        1
 92
        3
 72
     0
 73
     1
 93
        3
 10
122.83487955729166
 20
231.17055799696178
 10
126.8360134548611
 20
232.16756863064234
 10
126.8360134548611
 20
230.17354736328122
 97
        0
 75
     0
 76
     1
 98
        1
 10
0.0
 20
0.0
  0
LINE
  5
BF
100
AcDbEntity
  8
EBENE_1
 62
   250
100
AcDbLine
 10
162.334966
 20
231.170558
 30
0.0
 11
122.83488
 21
231.170558
 31
0.0
  0
POLYLINE
  5
BA
100
AcDbEntity
  8
EBENE_1
 62
   250
100
AcDb2dPolyline
 66
     1
 10
0.0
 20
0.0
 30
0.0
 70
     1
  0
VERTEX
  5
BB
100
AcDbEntity
  8
EBENE_1
 62
   250
100
AcDbVertex
100
AcDb2dVertex
 10
214.834776
 20
231.170558
 30
0.0
  0
VERTEX
  5
BC
100
AcDbEntity
  8
EBENE_1
 62
   250
100
AcDbVertex
100
AcDb2dVertex
 10
210.833643
 20
230.173547
 30
0.0
  0
VERTEX
  5
BD
100
AcDbEntity
  8
EBENE_1
 62
   250
100
AcDbVertex
100
AcDb2dVertex
 10
210.833643
 20
232.167569
 30
0.0
  0
SEQEND
  5
BE
100
AcDbEntity
  8
EBENE_1
 62
   250
  0
HATCH
  5
B9
100
AcDbEntity
  8
EBENE_1
 62
   250
100
AcDbHatch
 10
0.0
 20
0.0
 30
0.0
210
0.0
220
0.0
230
1.0
  2
SOLID
 70
     1
 71
     0
 91
        1
 92
        3
 72
     0
 73
     1
 93
        3
 10
214.83477647569441
 20
231.17055799696178
 10
210.83364257812499
 20
230.17354736328122
 10
210.83364257812499
 20
232.16756863064234
 97
        0
 75
     0
 76
     1
 98
        1
 10
0.0
 20
0.0
  0
LINE
  5
B8
100
AcDbEntity
  8
EBENE_1
 62
   250
100
AcDbLine
 10
174.334923
 20
231.170558
 30
0.0
 11
214.834776
 21
231.170558
 31
0.0
  0
LINE
  5
B7
100
AcDbEntity
  8
EBENE_1
 62
   250
100
AcDbLine
 10
122.83488
 20
215.670557
 30
0.0
 11
122.83488
 21
231.170558
 31
0.0
  0
LINE
  5
B6
100
AcDbEntity
  8
EBENE_1
 62
   250
100
AcDbLine
 10
214.834776
 20
215.670557
 30
0.0
 11
214.834776
 21
241.63693
 31
0.0
  0
MTEXT
  5
B5
100
AcDbEntity
  8
EBENE_1
 62
   250
100
AcDbMText
 10
-29.727901
 20
203.34544
 30
0.0
 40
3.674769
 41
0.0
 71
     1
 72
     2
  1
\fMyriad Roman|b0|i0; 23.0 
  7
STD
210
0.0
220
0.0
230
1.0
 11
1.000001
 21
0.0
 31
0.0
 73
     1
 44
1.0
  0
POLYLINE
  5
B0
100
AcDbEntity
  8
EBENE_1
 62
   250
100
AcDb2dPolyline
 66
     1
 10
0.0
 20
0.0
 30
0.0
 70
     1
  0
VERTEX
  5
B1
100
AcDbEntity
  8
EBENE_1
 62
   250
100
AcDbVertex
100
AcDb2dVertex
 10
-11.165554
 20
200.670611
 30
0.0
  0
VERTEX
  5
B2
100
AcDbEntity
  8
EBENE_1
 62
   250
100
AcDbVertex
100
AcDb2dVertex
 10
-15.666572
 20
199.6736
 30
0.0
  0
VERTEX
  5
B3
100
AcDbEntity
  8
EBENE_1
 62
   250
100
AcDbVertex
100
AcDb2dVertex
 10
-15.666572
 20
201.667622
 30
0.0
  0
SEQEND
  5
B4
100
AcDbEntity
  8
EBENE_1
 62
   250
  0
HATCH
  5
AF
100
AcDbEntity
  8
EBENE_1
 62
   250
100
AcDbHatch
 10
0.0
 20
0.0
 30
0.0
210
0.0
220
0.0
230
1.0
  2
SOLID
 70
     1
 71
     0
 91
        1
 92
        3
 72
     0
 73
     1
 93
        3
 10
-11.165554470486111
 20
200.67061089409719
 10
-15.666571723090277
 20
199.67360026041663
 10
-15.666571723090277
 20
201.66762152777775
 97
        0
 75
     0
 76
     1
 98
        1
 10
0.0
 20
0.0
  0
LINE
  5
AE
100
AcDbEntity
  8
EBENE_1
 62
   250
100
AcDbLine
 10
-16.228122
 20
200.670611
 30
0.0
 11
-11.165554
 21
200.670611
 31
0.0
  0
POLYLINE
  5
A9
100
AcDbEntity
  8
EBENE_1
 62
   250
100
AcDb2dPolyline
 66
     1
 10
0.0
 20
0.0
 30
0.0
 70
     1
  0
VERTEX
  5
AA
100
AcDbEntity
  8
EBENE_1
 62
   250
100
AcDbVertex
100
AcDb2dVertex
 10
-37.040633
 20
200.670611
 30
0.0
  0
VERTEX
  5
AB
100
AcDbEntity
  8
EBENE_1
 62
   250
100
AcDbVertex
100
AcDb2dVertex
 10
-32.539271
 20
201.667622
 30
0.0
  0
VERTEX
  5
AC
100
AcDbEntity
  8
EBENE_1
 62
   250
100
AcDbVertex
100
AcDb2dVertex
 10
-32.539271
 20
199.6736
 30
0.0
  0
SEQEND
  5
AD
100
AcDbEntity
  8
EBENE_1
 62
   250
  0
HATCH
  5
A8
100
AcDbEntity
  8
EBENE_1
 62
   250
100
AcDbHatch
 10
0.0
 20
0.0
 30
0.0
210
0.0
220
0.0
230
1.0
  2
SOLID
 70
     1
 71
     0
 91
        1
 92
        3
 72
     0
 73
     1
 93
        3
 10
-37.04063313802083
 20
200.67061089409719
 10
-32.539271375868054
 20
201.66762152777775
 10
-32.539271375868054
 20
199.67360026041663
 97
        0
 75
     0
 76
     1
 98
        1
 10
0.0
 20
0.0
  0
MTEXT
  5
A7
100
AcDbEntity
  8
EBENE_1
 62
   250
100
AcDbMText
 10
-29.785262
 20
204.345379
 30
0.0
 40
3.674769
 41
0.0
 71
     1
 72
     2
  1
\fMyriad Roman|b0|i0;
  7
STD
210
0.0
220
0.0
230
1.0
 11
1.000001
 21
0.0
 31
0.0
 73
     1
 44
1.0
  0
LINE
  5
A6
100
AcDbEntity
  8
EBENE_1
 62
   250
100
AcDbLine
 10
-11.165554
 20
189.170538
 30
0.0
 11
-11.165554
 21
241.938376
 31
0.0
  0
LINE
  5
A5
100
AcDbEntity
  8
EBENE_1
 62
   250
100
AcDbLine
 10
-37.040633
 20
143.670817
 30
0.0
 11
-37.040633
 21
200.670611
 31
0.0
  0
MTEXT
  5
A4
100
AcDbEntity
  8
EBENE_1
 62
   250
100
AcDbMText
 10
217.381391
 20
161.345248
 30
0.0
 40
3.674769
 41
0.0
 71
     1
 72
     2
  1
\fMyriad Roman|b0|i0; 120.0 
  7
STD
210
0.0
220
0.0
230
1.0
 11
1.000001
 21
0.0
 31
0.0
 73
     1
 44
1.0
  0
POLYLINE
  5
9F
100
AcDbEntity
  8
EBENE_1
 62
   250
100
AcDb2dPolyline
 66
     1
 10
0.0
 20
0.0
 30
0.0
 70
     1
  0
VERTEX
  5
A0
100
AcDbEntity
  8
EBENE_1
 62
   250
100
AcDbVertex
100
AcDb2dVertex
 10
224.334972
 20
99.170519
 30
0.0
  0
VERTEX
  5
A1
100
AcDbEntity
  8
EBENE_1
 62
   250
100
AcDbVertex
100
AcDb2dVertex
 10
223.337961
 20
103.171653
 30
0.0
  0
VERTEX
  5
A2
100
AcDbEntity
  8
EBENE_1
 62
   250
100
AcDbVertex
100
AcDb2dVertex
 10
225.331982
 20
103.171653
 30
0.0
  0
SEQEND
  5
A3
100
AcDbEntity
  8
EBENE_1
 62
   250
  0
HATCH
  5
9E
100
AcDbEntity
  8
EBENE_1
 62
   250
100
AcDbHatch
 10
0.0
 20
0.0
 30
0.0
210
0.0
220
0.0
230
1.0
  2
SOLID
 70
     1
 71
     0
 91
        1
 92
        3
 72
     0
 73
     1
 93
        3
 10
224.33497178819442
 20
99.170518663194429
 10
223.33796115451386
 20
103.17165256076387
 10
225.33198242187498
 20
103.17165256076387
 97
        0
 75
     0
 76
     1
 98
        1
 10
0.0
 20
0.0
  0
LINE
  5
9D
100
AcDbEntity
  8
EBENE_1
 62
   250
100
AcDbLine
 10
224.334972
 20
156.670713
 30
0.0
 11
224.334972
 21
99.170519
 31
0.0
  0
POLYLINE
  5
98
100
AcDbEntity
  8
EBENE_1
 62
   250
100
AcDb2dPolyline
 66
     1
 10
0.0
 20
0.0
 30
0.0
 70
     1
  0
VERTEX
  5
99
100
AcDbEntity
  8
EBENE_1
 62
   250
100
AcDbVertex
100
AcDb2dVertex
 10
224.334972
 20
219.170601
 30
0.0
  0
VERTEX
  5
9A
100
AcDbEntity
  8
EBENE_1
 62
   250
100
AcDbVertex
100
AcDb2dVertex
 10
225.331982
 20
215.16964
 30
0.0
  0
VERTEX
  5
9B
100
AcDbEntity
  8
EBENE_1
 62
   250
100
AcDbVertex
100
AcDb2dVertex
 10
223.337961
 20
215.16964
 30
0.0
  0
SEQEND
  5
9C
100
AcDbEntity
  8
EBENE_1
 62
   250
  0
HATCH
  5
97
100
AcDbEntity
  8
EBENE_1
 62
   250
100
AcDbHatch
 10
0.0
 20
0.0
 30
0.0
210
0.0
220
0.0
230
1.0
  2
SOLID
 70
     1
 71
     0
 91
        1
 92
        3
 72
     0
 73
     1
 93
        3
 10
224.33497178819442
 20
219.17060139973955
 10
225.33198242187498
 20
215.16963975694443
 10
223.33796115451386
 20
215.16963975694443
 97
        0
 75
     0
 76
     1
 98
        1
 10
0.0
 20
0.0
  0
LINE
  5
96
100
AcDbEntity
  8
EBENE_1
 62
   250
100
AcDbLine
 10
224.334972
 20
160.670468
 30
0.0
 11
224.334972
 21
219.170601
 31
0.0
  0
LINE
  5
95
100
AcDbEntity
  8
EBENE_1
 62
   250
100
AcDbLine
 10
198.834375
 20
99.170519
 30
0.0
 11
224.334972
 21
99.170519
 31
0.0
  0
LINE
  5
94
100
AcDbEntity
  8
EBENE_1
 62
   250
100
AcDbLine
 10
198.834375
 20
219.170601
 30
0.0
 11
224.334972
 21
219.170601
 31
0.0
  0
POLYLINE
  5
8F
100
AcDbEntity
  8
EBENE_1
 62
   250
100
AcDb2dPolyline
 66
     1
 10
0.0
 20
0.0
 30
0.0
 70
     1
  0
VERTEX
  5
90
100
AcDbEntity
  8
EBENE_1
 62
   250
100
AcDbVertex
100
AcDb2dVertex
 10
-11.107677
 20
241.901686
 30
0.0
  0
VERTEX
  5
91
100
AcDbEntity
  8
EBENE_1
 62
   250
100
AcDbVertex
100
AcDb2dVertex
 10
-6.606487
 20
242.898697
 30
0.0
  0
VERTEX
  5
92
100
AcDbEntity
  8
EBENE_1
 62
   250
100
AcDbVertex
100
AcDb2dVertex
 10
-6.606487
 20
240.904675
 30
0.0
  0
SEQEND
  5
93
100
AcDbEntity
  8
EBENE_1
 62
   250
  0
HATCH
  5
8E
100
AcDbEntity
  8
EBENE_1
 62
   250
100
AcDbHatch
 10
0.0
 20
0.0
 30
0.0
210
0.0
220
0.0
230
1.0
  2
SOLID
 70
     1
 71
     0
 91
        1
 92
        3
 72
     0
 73
     1
 93
        3
 10
-11.107676866319444
 20
241.90168592664929
 10
-6.6064873589409716
 20
242.89869656032985
 10
-6.6064873589409716
 20
240.90467529296873
 97
        0
 75
     0
 76
     1
 98
        1
 10
0.0
 20
0.0
  0
LINE
  5
8D
100
AcDbEntity
  8
EBENE_1
 62
   250
100
AcDbLine
 10
110.493859
 20
241.888767
 30
0.0
 11
-11.085111
 21
241.888767
 31
0.0
  0
POLYLINE
  5
88
100
AcDbEntity
  8
EBENE_1
 62
   250
100
AcDb2dPolyline
 66
     1
 10
0.0
 20
0.0
 30
0.0
 70
     1
  0
VERTEX
  5
89
100
AcDbEntity
  8
EBENE_1
 62
   250
100
AcDbVertex
100
AcDb2dVertex
 10
214.834776
 20
241.775423
 30
0.0
  0
VERTEX
  5
8A
100
AcDbEntity
  8
EBENE_1
 62
   250
100
AcDbVertex
100
AcDb2dVertex
 10
210.833643
 20
240.778413
 30
0.0
  0
VERTEX
  5
8B
100
AcDbEntity
  8
EBENE_1
 62
   250
100
AcDbVertex
100
AcDb2dVertex
 10
210.833643
 20
242.772434
 30
0.0
  0
SEQEND
  5
8C
100
AcDbEntity
  8
EBENE_1
 62
   250
  0
HATCH
  5
87
100
AcDbEntity
  8
EBENE_1
 62
   250
100
AcDbHatch
 10
0.0
 20
0.0
 30
0.0
210
0.0
220
0.0
230
1.0
  2
SOLID
 70
     1
 71
     0
 91
        1
 92
        3
 72
     0
 73
     1
 93
        3
 10
214.83477647569441
 20
241.7754231770833
 10
210.83364257812499
 20
240.77841254340277
 10
210.83364257812499
 20
242.77243381076386
 97
        0
 75
     0
 76
     1
 98
        1
 10
0.0
 20
0.0
  0
LINE
  5
86
100
AcDbEntity
  8
EBENE_1
 62
   250
100
AcDbLine
 10
123.104975
 20
241.723747
 30
0.0
 11
214.834776
 21
241.723747
 31
0.0
  0
MTEXT
  5
85
100
AcDbEntity
  8
EBENE_1
 62
   250
100
AcDbMText
 10
-2.166793
 20
196.845407
 30
0.0
 40
3.674769
 41
0.0
 71
     1
 72
     2
  1
\fMyriad Roman|b0|i0; 3.0
  7
STD
210
0.0
220
0.0
230
1.0
 11
1.000001
 21
0.0
 31
0.0
 73
     1
 44
1.0
  0
POLYLINE
  5
80
100
AcDbEntity
  8
EBENE_1
 62
   250
100
AcDb2dPolyline
 66
     1
 10
0.0
 20
0.0
 30
0.0
 70
     1
  0
VERTEX
  5
81
100
AcDbEntity
  8
EBENE_1
 62
   250
100
AcDbVertex
100
AcDb2dVertex
 10
-11.165554
 20
194.170577
 30
0.0
  0
VERTEX
  5
82
100
AcDbEntity
  8
EBENE_1
 62
   250
100
AcDbVertex
100
AcDb2dVertex
 10
-6.664365
 20
195.167588
 30
0.0
  0
VERTEX
  5
83
100
AcDbEntity
  8
EBENE_1
 62
   250
100
AcDbVertex
100
AcDb2dVertex
 10
-6.664365
 20
193.173566
 30
0.0
  0
SEQEND
  5
84
100
AcDbEntity
  8
EBENE_1
 62
   250
  0
HATCH
  5
7F
100
AcDbEntity
  8
EBENE_1
 62
   250
100
AcDbHatch
 10
0.0
 20
0.0
 30
0.0
210
0.0
220
0.0
230
1.0
  2
SOLID
 70
     1
 71
     0
 91
        1
 92
        3
 72
     0
 73
     1
 93
        3
 10
-11.165554470486111
 20
194.17057698567706
 10
-6.664364963107638
 20
195.16758761935762
 10
-6.664364963107638
 20
193.1735663519965
 97
        0
 75
     0
 76
     1
 98
        1
 10
0.0
 20
0.0
  0
LINE
  5
7E
100
AcDbEntity
  8
EBENE_1
 62
   250
100
AcDbLine
 10
-2.165759
 20
194.170577
 30
0.0
 11
-11.165554
 21
194.170577
 31
0.0
  0
POLYLINE
  5
79
100
AcDbEntity
  8
EBENE_1
 62
   250
100
AcDb2dPolyline
 66
     1
 10
0.0
 20
0.0
 30
0.0
 70
     1
  0
VERTEX
  5
7A
100
AcDbEntity
  8
EBENE_1
 62
   250
100
AcDbVertex
100
AcDb2dVertex
 10
-13.97813
 20
194.170577
 30
0.0
  0
VERTEX
  5
7B
100
AcDbEntity
  8
EBENE_1
 62
   250
100
AcDbVertex
100
AcDb2dVertex
 10
-18.479148
 20
193.173566
 30
0.0
  0
VERTEX
  5
7C
100
AcDbEntity
  8
EBENE_1
 62
   250
100
AcDbVertex
100
AcDb2dVertex
 10
-18.479148
 20
195.167588
 30
0.0
  0
SEQEND
  5
7D
100
AcDbEntity
  8
EBENE_1
 62
   250
  0
HATCH
  5
78
100
AcDbEntity
  8
EBENE_1
 62
   250
100
AcDbHatch
 10
0.0
 20
0.0
 30
0.0
210
0.0
220
0.0
230
1.0
  2
SOLID
 70
     1
 71
     0
 91
        1
 92
        3
 72
     0
 73
     1
 93
        3
 10
-13.978130425347221
 20
194.17057698567706
 10
-18.479147677951389
 20
193.1735663519965
 10
-18.479147677951389
 20
195.16758761935762
 97
        0
 75
     0
 76
     1
 98
        1
 10
0.0
 20
0.0
  0
LINE
  5
77
100
AcDbEntity
  8
EBENE_1
 62
   250
100
AcDbLine
 10
-22.978098
 20
194.170577
 30
0.0
 11
-13.97813
 21
194.170577
 31
0.0
  0
LINE
  5
76
100
AcDbEntity
  8
EBENE_1
 62
   250
100
AcDbLine
 10
-11.165554
 20
88.670557
 30
0.0
 11
-11.165554
 21
194.170577
 31
0.0
  0
LINE
  5
75
100
AcDbEntity
  8
EBENE_1
 62
   250
100
AcDbLine
 10
-13.97813
 20
109.170942
 30
0.0
 11
-13.97813
 21
194.170577
 31
0.0
  0
MTEXT
  5
74
100
AcDbEntity
  8
EBENE_1
 62
   250
100
AcDbMText
 10
9.647129
 20
77.345379
 30
0.0
 40
3.674769
 41
0.0
 71
     1
 72
     2
  1
\fMyriad Roman|b0|i0; 11.0 
  7
STD
210
0.0
220
0.0
230
1.0
 11
1.000001
 21
0.0
 31
0.0
 73
     1
 44
1.0
  0
POLYLINE
  5
6F
100
AcDbEntity
  8
EBENE_1
 62
   250
100
AcDb2dPolyline
 66
     1
 10
0.0
 20
0.0
 30
0.0
 70
     1
  0
VERTEX
  5
70
100
AcDbEntity
  8
EBENE_1
 62
   250
100
AcDbVertex
100
AcDb2dVertex
 10
0.084233
 20
74.670378
 30
0.0
  0
VERTEX
  5
71
100
AcDbEntity
  8
EBENE_1
 62
   250
100
AcDbVertex
100
AcDb2dVertex
 10
4.585422
 20
75.667388
 30
0.0
  0
VERTEX
  5
72
100
AcDbEntity
  8
EBENE_1
 62
   250
100
AcDbVertex
100
AcDb2dVertex
 10
4.585422
 20
73.673367
 30
0.0
  0
SEQEND
  5
73
100
AcDbEntity
  8
EBENE_1
 62
   250
  0
HATCH
  5
6E
100
AcDbEntity
  8
EBENE_1
 62
   250
100
AcDbHatch
 10
0.0
 20
0.0
 30
0.0
210
0.0
220
0.0
230
1.0
  2
SOLID
 70
     1
 71
     0
 91
        1
 92
        3
 72
     0
 73
     1
 93
        3
 10
0.0842325846354167
 20
74.67037760416666
 10
4.5854220920138884
 20
75.66738823784722
 10
4.5854220920138884
 20
73.6733669704861
 97
        0
 75
     0
 76
     1
 98
        1
 10
0.0
 20
0.0
  0
LINE
  5
6D
100
AcDbEntity
  8
EBENE_1
 62
   250
100
AcDbLine
 10
9.647129
 20
74.670378
 30
0.0
 11
0.084233
 21
74.670378
 31
0.0
  0
POLYLINE
  5
68
100
AcDbEntity
  8
EBENE_1
 62
   250
100
AcDb2dPolyline
 66
     1
 10
0.0
 20
0.0
 30
0.0
 70
     1
  0
VERTEX
  5
69
100
AcDbEntity
  8
EBENE_1
 62
   250
100
AcDbVertex
100
AcDb2dVertex
 10
-11.165554
 20
74.670378
 30
0.0
  0
VERTEX
  5
6A
100
AcDbEntity
  8
EBENE_1
 62
   250
100
AcDbVertex
100
AcDb2dVertex
 10
-15.666572
 20
73.673367
 30
0.0
  0
VERTEX
  5
6B
100
AcDbEntity
  8
EBENE_1
 62
   250
100
AcDbVertex
100
AcDb2dVertex
 10
-15.666572
 20
75.667388
 30
0.0
  0
SEQEND
  5
6C
100
AcDbEntity
  8
EBENE_1
 62
   250
  0
HATCH
  5
67
100
AcDbEntity
  8
EBENE_1
 62
   250
100
AcDbHatch
 10
0.0
 20
0.0
 30
0.0
210
0.0
220
0.0
230
1.0
  2
SOLID
 70
     1
 71
     0
 91
        1
 92
        3
 72
     0
 73
     1
 93
        3
 10
-11.165554470486111
 20
74.67037760416666
 10
-15.666571723090277
 20
73.6733669704861
 10
-15.666571723090277
 20
75.66738823784722
 97
        0
 75
     0
 76
     1
 98
        1
 10
0.0
 20
0.0
  0
LINE
  5
66
100
AcDbEntity
  8
EBENE_1
 62
   250
100
AcDbLine
 10
-20.165522
 20
74.670378
 30
0.0
 11
-11.165554
 21
74.670378
 31
0.0
  0
LINE
  5
65
100
AcDbEntity
  8
EBENE_1
 62
   250
100
AcDbLine
 10
0.084233
 20
88.670557
 30
0.0
 11
0.084233
 21
74.670378
 31
0.0
  0
LINE
  5
64
100
AcDbEntity
  8
EBENE_1
 62
   250
100
AcDbLine
 10
-11.165554
 20
89.670323
 30
0.0
 11
-11.165554
 21
74.670378
 31
0.0
  0
LINE
  5
63
100
AcDbEntity
  8
EBENE_1
 62
   250
100
AcDbLine
 10
127.873676
 20
178.240628
 30
0.0
 11
214.80067
 21
178.240628
 31
0.0
  0
LINE
  5
62
100
AcDbEntity
  8
EBENE_1
 62
   250
100
AcDbLine
 10
127.907783
 20
181.226492
 30
0.0
 11
214.800326
 21
181.226492
 31
0.0
  0
LINE
  5
61
100
AcDbEntity
  8
EBENE_1
 62
   250
100
AcDbLine
 10
127.93431
 20
168.069156
 30
0.0
 11
214.406207
 21
168.069156
 31
0.0
  0
LINE
  5
60
100
AcDbEntity
  8
EBENE_1
 62
   250
100
AcDbLine
 10
127.907783
 20
165.165801
 30
0.0
 11
214.642196
 21
165.165801
 31
0.0
  0
LINE
  5
5F
100
AcDbEntity
  8
EBENE_1
 62
   250
100
AcDbLine
 10
127.430637
 20
139.181169
 30
0.0
 11
214.752439
 21
139.181169
 31
0.0
  0
LINE
  5
5E
100
AcDbEntity
  8
EBENE_1
 62
   250
100
AcDbLine
 10
127.855417
 20
155.046867
 30
0.0
 11
214.848557
 21
155.046867
 31
0.0
  0
LINE
  5
5D
100
AcDbEntity
  8
EBENE_1
 62
   250
100
AcDbLine
 10
127.907783
 20
152.167801
 30
0.0
 11
214.837188
 21
152.167801
 31
0.0
  0
LINE
  5
5C
100
AcDbEntity
  8
EBENE_1
 62
   250
100
AcDbLine
 10
-11.048938
 20
189.101463
 30
0.0
 11
-73.21448
 21
189.101463
 31
0.0
  0
LINE
  5
5B
100
AcDbEntity
  8
EBENE_1
 62
   250
100
AcDbLine
 10
-35.535299
 20
144.562408
 30
0.0
 11
-46.34153
 21
144.562408
 31
0.0
  0
LINE
  5
5A
100
AcDbEntity
  8
EBENE_1
 62
   250
100
AcDbLine
 10
-35.535299
 20
144.562408
 30
0.0
 11
-46.34153
 21
144.562408
 31
0.0
  0
MTEXT
  5
59
100
AcDbEntity
  8
EBENE_1
 62
   250
100
AcDbMText
 10
-66.744591
 20
142.567927
 30
0.0
 40
3.674769
 41
0.0
 71
     1
 72
     2
  1
\fMyriad Roman|b0|i0; 60j6
  7
STD
210
0.0
220
0.0
230
1.0
 11
1.000001
 21
0.0
 31
0.0
 73
     1
 44
1.0
  0
MTEXT
  5
58
100
AcDbEntity
  8
EBENE_1
 62
   250
100
AcDbMText
 10
-79.741041
 20
142.859727
 30
0.0
 40
3.674769
 41
0.0
 71
     1
 72
     2
  1
\fMyriad Roman|b0|i0;100.0
  7
STD
210
0.0
220
0.0
230
1.0
 11
1.000001
 21
0.0
 31
0.0
 73
     1
 44
1.0
  0
LINE
  5
57
100
AcDbEntity
  8
EBENE_1
 62
   250
100
AcDbLine
 10
-35.827443
 20
133.756177
 30
0.0
 11
-46.633674
 21
133.756177
 31
0.0
  0
LINE
  5
56
100
AcDbEntity
  8
EBENE_1
 62
   250
100
AcDbLine
 10
-46.487602
 20
125.410433
 30
0.0
 11
-46.487602
 21
133.632498
 31
0.0
  0
POLYLINE
  5
51
100
AcDbEntity
  8
EBENE_1
 62
   250
100
AcDb2dPolyline
 66
     1
 10
0.0
 20
0.0
 30
0.0
 70
     1
  0
VERTEX
  5
52
100
AcDbEntity
  8
EBENE_1
 62
   250
100
AcDbVertex
100
AcDb2dVertex
 10
-61.3823
 20
109.116854
 30
0.0
  0
VERTEX
  5
53
100
AcDbEntity
  8
EBENE_1
 62
   250
100
AcDbVertex
100
AcDb2dVertex
 10
-62.504023
 20
113.117299
 30
0.0
  0
VERTEX
  5
54
100
AcDbEntity
  8
EBENE_1
 62
   250
100
AcDbVertex
100
AcDb2dVertex
 10
-60.260921
 20
113.117299
 30
0.0
  0
SEQEND
  5
55
100
AcDbEntity
  8
EBENE_1
 62
   250
  0
HATCH
  5
50
100
AcDbEntity
  8
EBENE_1
 62
   250
100
AcDbHatch
 10
0.0
 20
0.0
 30
0.0
210
0.0
220
0.0
230
1.0
  2
SOLID
 70
     1
 71
     0
 91
        1
 92
        3
 72
     0
 73
     1
 93
        3
 10
-61.382299804687491
 20
109.11685384114583
 10
-62.504022894965274
 20
113.11729871961805
 10
-60.260921223958327
 20
113.11729871961805
 97
        0
 75
     0
 76
     1
 98
        1
 10
0.0
 20
0.0
  0
POLYLINE
  5
4B
100
AcDbEntity
  8
EBENE_1
 62
   250
100
AcDb2dPolyline
 66
     1
 10
0.0
 20
0.0
 30
0.0
 70
     1
  0
VERTEX
  5
4C
100
AcDbEntity
  8
EBENE_1
 62
   250
100
AcDbVertex
100
AcDb2dVertex
 10
-73.416191
 20
89.35303
 30
0.0
  0
VERTEX
  5
4D
100
AcDbEntity
  8
EBENE_1
 62
   250
100
AcDbVertex
100
AcDb2dVertex
 10
-74.537914
 20
93.353475
 30
0.0
  0
VERTEX
  5
4E
100
AcDbEntity
  8
EBENE_1
 62
   250
100
AcDbVertex
100
AcDb2dVertex
 10
-72.294812
 20
93.353475
 30
0.0
  0
SEQEND
  5
4F
100
AcDbEntity
  8
EBENE_1
 62
   250
  0
HATCH
  5
4A
100
AcDbEntity
  8
EBENE_1
 62
   250
100
AcDbHatch
 10
0.0
 20
0.0
 30
0.0
210
0.0
220
0.0
230
1.0
  2
SOLID
 70
     1
 71
     0
 91
        1
 92
        3
 72
     0
 73
     1
 93
        3
 10
-73.416190592447904
 20
89.353030056423606
 10
-74.537913682725687
 20
93.353474934895829
 10
-72.294812011718747
 20
93.353474934895829
 97
        0
 75
     0
 76
     1
 98
        1
 10
0.0
 20
0.0
  0
LINE
  5
49
100
AcDbEntity
  8
EBENE_1
 62
   250
100
AcDbLine
 10
-10.684619
 20
89.249333
 30
0.0
 11
-73.621691
 21
89.249333
 31
0.0
  0
LINE
  5
48
100
AcDbEntity
  8
EBENE_1
 62
   250
100
AcDbLine
 10
-73.503007
 20
89.046761
 30
0.0
 11
-73.503007
 21
135.435661
 31
0.0
  0
LINE
  5
47
100
AcDbEntity
  8
EBENE_1
 62
   250
100
AcDbLine
 10
-73.282004
 20
145.407834
 30
0.0
 11
-73.282004
 21
187.941844
 31
0.0
  0
POLYLINE
  5
42
100
AcDbEntity
  8
EBENE_1
 62
   250
100
AcDb2dPolyline
 66
     1
 10
0.0
 20
0.0
 30
0.0
 70
     1
  0
VERTEX
  5
43
100
AcDbEntity
  8
EBENE_1
 62
   250
100
AcDbVertex
100
AcDb2dVertex
 10
-73.281832
 20
189.100602
 30
0.0
  0
VERTEX
  5
44
100
AcDbEntity
  8
EBENE_1
 62
   250
100
AcDbVertex
100
AcDb2dVertex
 10
-72.160453
 20
185.099468
 30
0.0
  0
VERTEX
  5
45
100
AcDbEntity
  8
EBENE_1
 62
   250
100
AcDbVertex
100
AcDb2dVertex
 10
-74.403555
 20
185.099468
 30
0.0
  0
SEQEND
  5
46
100
AcDbEntity
  8
EBENE_1
 62
   250
  0
HATCH
  5
41
100
AcDbEntity
  8
EBENE_1
 62
   250
100
AcDbHatch
 10
0.0
 20
0.0
 30
0.0
210
0.0
220
0.0
230
1.0
  2
SOLID
 70
     1
 71
     0
 91
        1
 92
        3
 72
     0
 73
     1
 93
        3
 10
-73.281831868489576
 20
189.10060221354166
 10
-72.160453287760404
 20
185.09946831597222
 10
-74.403554958767359
 20
185.09946831597222
 97
        0
 75
     0
 76
     1
 98
        1
 10
0.0
 20
0.0
  0
POLYLINE
  5
3C
100
AcDbEntity
  8
EBENE_1
 62
   250
100
AcDb2dPolyline
 66
     1
 10
0.0
 20
0.0
 30
0.0
 70
     1
  0
VERTEX
  5
3D
100
AcDbEntity
  8
EBENE_1
 62
   250
100
AcDbVertex
100
AcDb2dVertex
 10
-61.316326
 20
169.131451
 30
0.0
  0
VERTEX
  5
3E
100
AcDbEntity
  8
EBENE_1
 62
   250
100
AcDbVertex
100
AcDb2dVertex
 10
-60.194948
 20
165.130317
 30
0.0
  0
VERTEX
  5
3F
100
AcDbEntity
  8
EBENE_1
 62
   250
100
AcDbVertex
100
AcDb2dVertex
 10
-62.438049
 20
165.130317
 30
0.0
  0
SEQEND
  5
40
100
AcDbEntity
  8
EBENE_1
 62
   250
  0
HATCH
  5
3B
100
AcDbEntity
  8
EBENE_1
 62
   250
100
AcDbHatch
 10
0.0
 20
0.0
 30
0.0
210
0.0
220
0.0
230
1.0
  2
SOLID
 70
     1
 71
     0
 91
        1
 92
        3
 72
     0
 73
     1
 93
        3
 10
-61.316326226128467
 20
169.13145073784722
 10
-60.194947645399303
 20
165.13031684027777
 10
-62.438049316406243
 20
165.13031684027777
 97
        0
 75
     0
 76
     1
 98
        1
 10
0.0
 20
0.0
  0
LINE
  5
3A
100
AcDbEntity
  8
EBENE_1
 62
   250
100
AcDbLine
 10
-61.290316
 20
168.129445
 30
0.0
 11
-61.290316
 21
145.619363
 31
0.0
  0
LINE
  5
39
100
AcDbEntity
  8
EBENE_1
 62
   250
100
AcDbLine
 10
69.929926
 20
231.26013
 30
0.0
 11
-11.265979
 21
231.26013
 31
0.0
  0
LINE
  5
38
100
AcDbEntity
  8
EBENE_1
 62
   250
100
AcDbLine
 10
122.897236
 20
231.11113
 30
0.0
 11
82.790123
 21
231.11113
 31
0.0
  0
POLYLINE
  5
33
100
AcDbEntity
  8
EBENE_1
 62
   250
100
AcDb2dPolyline
 66
     1
 10
0.0
 20
0.0
 30
0.0
 70
     1
  0
VERTEX
  5
34
100
AcDbEntity
  8
EBENE_1
 62
   250
100
AcDbVertex
100
AcDb2dVertex
 10
122.786648
 20
231.131284
 30
0.0
  0
VERTEX
  5
35
100
AcDbEntity
  8
EBENE_1
 62
   250
100
AcDbVertex
100
AcDb2dVertex
 10
118.785514
 20
230.134273
 30
0.0
  0
VERTEX
  5
36
100
AcDbEntity
  8
EBENE_1
 62
   250
100
AcDbVertex
100
AcDb2dVertex
 10
118.785514
 20
232.128295
 30
0.0
  0
SEQEND
  5
37
100
AcDbEntity
  8
EBENE_1
 62
   250
  0
HATCH
  5
32
100
AcDbEntity
  8
EBENE_1
 62
   250
100
AcDbHatch
 10
0.0
 20
0.0
 30
0.0
210
0.0
220
0.0
230
1.0
  2
SOLID
 70
     1
 71
     0
 91
        1
 92
        3
 72
     0
 73
     1
 93
        3
 10
122.7866482204861
 20
231.13128390842013
 10
118.78551432291665
 20
230.13427327473957
 10
118.78551432291665
 20
232.12829454210066
 97
        0
 75
     0
 76
     1
 98
        1
 10
0.0
 20
0.0
  0
POLYLINE
  5
2D
100
AcDbEntity
  8
EBENE_1
 62
   250
100
AcDb2dPolyline
 66
     1
 10
0.0
 20
0.0
 30
0.0
 70
     1
  0
VERTEX
  5
2E
100
AcDbEntity
  8
EBENE_1
 62
   250
100
AcDbVertex
100
AcDb2dVertex
 10
-11.123524
 20
231.263059
 30
0.0
  0
VERTEX
  5
2F
100
AcDbEntity
  8
EBENE_1
 62
   250
100
AcDbVertex
100
AcDb2dVertex
 10
-6.622335
 20
232.260069
 30
0.0
  0
VERTEX
  5
30
100
AcDbEntity
  8
EBENE_1
 62
   250
100
AcDbVertex
100
AcDb2dVertex
 10
-6.622335
 20
230.266048
 30
0.0
  0
SEQEND
  5
31
100
AcDbEntity
  8
EBENE_1
 62
   250
  0
HATCH
  5
2C
100
AcDbEntity
  8
EBENE_1
 62
   250
100
AcDbHatch
 10
0.0
 20
0.0
 30
0.0
210
0.0
220
0.0
230
1.0
  2
SOLID
 70
     1
 71
     0
 91
        1
 92
        3
 72
     0
 73
     1
 93
        3
 10
-11.123524305555554
 20
231.26305881076388
 10
-6.622334798177083
 20
232.26006944444441
 10
-6.622334798177083
 20
230.26604817708332
 97
        0
 75
     0
 76
     1
 98
        1
 10
0.0
 20
0.0
  0
MTEXT
  5
2B
100
AcDbEntity
  8
EBENE_1
 62
   250
100
AcDbMText
 10
112.879243
 20
244.069225
 30
0.0
 40
3.674769
 41
0.0
 71
     1
 72
     2
  1
\fMyriad Roman|b0|i0;226 
  7
STD
210
0.0
220
0.0
230
1.0
 11
1.000001
 21
0.0
 31
0.0
 73
     1
 44
1.0
  0
MTEXT
  5
2A
100
AcDbEntity
  8
EBENE_1
 62
   250
100
AcDbMText
 10
73.254099
 20
233.718436
 30
0.0
 40
3.674769
 41
0.0
 71
     1
 72
     2
  1
\fMyriad Roman|b0|i0;134
  7
STD
210
0.0
220
0.0
230
1.0
 11
1.000001
 21
0.0
 31
0.0
 73
     1
 44
1.0
  0
MTEXT
  5
29
100
AcDbEntity
  8
EBENE_1
 62
   250
100
AcDbMText
 10
13.214181
 20
194.174769
 30
0.0
 40
3.674769
 41
0.0
 71
     1
 72
     2
  1
\fMyriad Roman|b0|i0;
  7
STD
210
0.0
220
0.0
230
1.0
 11
1.000001
 21
0.0
 31
0.0
 73
     1
 44
1.0
  0
ENDSEC
  0
SECTION
  2
OBJECTS
  0
DICTIONARY
  5
19
100
AcDbDictionary
280
     0
281
     1
  3
ACAD_GROUP
350
1A
  3
ACAD_MLINESTYLE
350
1B
  3
ACAD_LAYOUT
350
1E
  3
ACAD_PLOTSETTINGS
350
22
  3
ACAD_PLOTSTYLENAME
350
1F
  3
ACAD_WIPEOUT_VARS
350
23
  0
DICTIONARY
  5
1A
102
{ACAD_REACTORS
330
19
102
}
100
AcDbDictionary
280
     0
281
     1
  0
DICTIONARY
  5
1B
102
{ACAD_REACTORS
330
19
102
}
100
AcDbDictionary
280
     0
281
     1
  3
Standard
350
1C
  0
MLINESTYLE
  5
1C
102
{ACAD_REACTORS
330
1B
102
}
100
AcDbMlineStyle
  2
Standard
 70
     0
  3

 62
     0
 51
90.0
 52
90.0
 71
     2
 49
0.5
 62
   256
  6
BYLAYER
 49
-0.5
 62
   256
  6
BYLAYER
  0
ACDBDICTIONARYWDFLT
  5
1F
102
{ACAD_REACTORS
330
19
102
}
100
AcDbDictionary
281
     1
  3
Normal
350
1D
100
AcDbDictionaryWithDefault
340
1D
  0
ACDBPLACEHOLDER
  5
1D
102
{ACAD_REACTORS
330
1F
102
}
  0
LAYOUT
  5
20
102
{ACAD_REACTORS
330
1E
102
}
100
AcDbPlotSettings
  1

  2

  4

  6

 40
0.0
 41
0.0
 42
0.0
 43
0.0
 44
0.0
 45
0.0
 46
0.0
 47
0.0
 48
0.0
 49
0.0
140
0.0
141
0.0
142
1.0
143
1.0
 70
  1024
 72
     0
 73
     0
 74
     0
  7

 75
     0
147
1.0
148
0.0
149
0.0
100
AcDbLayout
  1
Model
 70
     0
 71
     0
 10
0.0
 20
0.0
 11
0.0
 21
0.0
 12
0.0
 22
0.0
 32
0.0
 14
0.0
 24
0.0
 34
0.0
 15
0.0
 25
0.0
 35
0.0
146
0.0
 13
0.0
 23
0.0
 33
0.0
 16
0.0
 26
0.0
 36
0.0
 17
0.0
 27
0.0
 37
0.0
 76
     0
330
A
331
0
345
0
346
0
  0
LAYOUT
  5
21
102
{ACAD_REACTORS
330
1E
102
}
100
AcDbPlotSettings
  1

  2

  4

  6

 40
0.0
 41
0.0
 42
0.0
 43
0.0
 44
0.0
 45
0.0
 46
0.0
 47
0.0
 48
0.0
 49
0.0
140
0.0
141
0.0
142
1.0
143
1.0
 70
     0
 72
     0
 73
     0
 74
     0
  7

 75
     0
147
1.0
148
0.0
149
0.0
100
AcDbLayout
  1
Layout1
 70
     0
 71
     0
 10
0.0
 20
0.0
 11
0.0
 21
0.0
 12
0.0
 22
0.0
 32
0.0
 14
0.0
 24
0.0
 34
0.0
 15
0.0
 25
0.0
 35
0.0
146
0.0
 13
0.0
 23
0.0
 33
0.0
 16
0.0
 26
0.0
 36
0.0
 17
0.0
 27
0.0
 37
0.0
 76
     0
330
B
331
0
345
0
346
0
  0
DICTIONARY
  5
1E
102
{ACAD_REACTORS
330
19
102
}
100
AcDbDictionary
280
     0
281
     1
  3
Layout1
350
21
  3
Model
350
20
  0
DICTIONARY
  5
22
102
{ACAD_REACTORS
330
19
102
}
100
AcDbDictionary
280
     0
281
     1
  0
WIPEOUTVARIABLES
  5
23
100
AcDbWipeoutVariables
 70
     1
  0
ENDSEC
  0
EOF
