  0
SECTION
  2
HEADER
  9
$ACADVER
  1
AC1015
  9
$ACADMAINTVER
 70
     6
  9
$DWGCODEPAGE
  3
ANSI_932
  9
$INSBASE
 10
0.0
 20
0.0
 30
0.0
  9
$EXTMIN
 10
-46.741333
 20
72.435889
 30
1.000000E+20
  9
$EXTMAX
 10
230.631917
 20
282.260118
 30
-1.000000E+20
  9
$LIMMIN
 10
-46.741333
 20
72.435889
  9
$LIMMAX
 10
230.631917
 20
282.260118
  9
$ORTHOMODE
 70
     0
  9
$REGENMODE
 70
     1
  9
$FILLMODE
 70
     1
  9
$QTEXTMODE
 70
     0
  9
$MIRRTEXT
 70
     1
  9
$LTSCALE
 40
1.0
  9
$ATTMODE
 70
     1
  9
$TEXTSIZE
 40
0.2
  9
$TRACEWID
 40
0.05
  9
$TEXTSTYLE
  7
Standard
  9
$CLAYER
  8
0
  9
$CELTYPE
  6
Continuous
  9
$CECOLOR
 62
   256
  9
$CELTSCALE
 40
1.0
  9
$DISPSILH
 70
     0
  9
$DIMSCALE
 40
1.0
  9
$DIMASZ
 40
0.18
  9
$DIMEXO
 40
0.0625
  9
$DIMDLI
 40
0.38
  9
$DIMRND
 40
0.0
  9
$DIMDLE
 40
0.0
  9
$DIMEXE
 40
0.18
  9
$DIMTP
 40
0.0
  9
$DIMTM
 40
0.0
  9
$DIMTXT
 40
0.18
  9
$DIMCEN
 40
0.09
  9
$DIMTSZ
 40
0.0
  9
$DIMTOL
 70
     0
  9
$DIMLIM
 70
     0
  9
$DIMTIH
 70
     1
  9
$DIMTOH
 70
     1
  9
$DIMSE1
 70
     0
  9
$DIMSE2
 70
     0
  9
$DIMTAD
 70
     0
  9
$DIMZIN
 70
     0
  9
$DIMBLK
  1

  9
$DIMASO
 70
     1
  9
$DIMSHO
 70
     1
  9
$DIMPOST
  1

  9
$DIMAPOST
  1

  9
$DIMALT
 70
     0
  9
$DIMALTD
 70
     2
  9
$DIMALTF
 40
25.4
  9
$DIMLFAC
 40
1.0
  9
$DIMTOFL
 70
     0
  9
$DIMTVP
 40
0.0
  9
$DIMTIX
 70
     0
  9
$DIMSOXD
 70
     0
  9
$DIMSAH
 70
     0
  9
$DIMBLK1
  1

  9
$DIMBLK2
  1

  9
$DIMSTYLE
  2
Standard
  9
$DIMCLRD
 70
     0
  9
$DIMCLRE
 70
     0
  9
$DIMCLRT
 70
     0
  9
$DIMTFAC
 40
1.0
  9
$DIMGAP
 40
0.09
  9
$DIMJUST
 70
     0
  9
$DIMSD1
 70
     0
  9
$DIMSD2
 70
     0
  9
$DIMTOLJ
 70
     1
  9
$DIMTZIN
 70
     0
  9
$DIMALTZ
 70
     0
  9
$DIMALTTZ
 70
     0
  9
$DIMUPT
 70
     0
  9
$DIMDEC
 70
     4
  9
$DIMTDEC
 70
     4
  9
$DIMALTU
 70
     2
  9
$DIMALTTD
 70
     2
  9
$DIMTXSTY
  7
Standard
  9
$DIMAUNIT
 70
     0
  9
$DIMADEC
 70
     0
  9
$DIMALTRND
 40
0.0
  9
$DIMAZIN
 70
     0
  9
$DIMDSEP
 70
     0
  9
$DIMATFIT
 70
     3
  9
$DIMFRAC
 70
     0
  9
$DIMLDRBLK
  1

  9
$DIMLUNIT
 70
     2
  9
$DIMLWD
 70
     0
  9
$DIMLWE
 70
     0
  9
$DIMTMOVE
 70
     0
  9
$LUNITS
 70
     2
  9
$LUPREC
 70
     4
  9
$SKETCHINC
 40
0.1
  9
$FILLETRAD
 40
0.0
  9
$AUNITS
 70
     0
  9
$AUPREC
 70
     0
  9
$MENU
  1
acad
  9
$ELEVATION
 40
0.0
  9
$PELEVATION
 40
0.0
  9
$THICKNESS
 40
0.0
  9
$LIMCHECK
 70
     0
  9
$CHAMFERA
 40
0.0
  9
$CHAMFERB
 40
0.0
  9
$CHAMFERC
 40
0.0
  9
$CHAMFERD
 40
0.0
  9
$SKPOLY
 70
     0
  9
$TDCREATE
 40
0.000000000
  9
$TDUCREATE
 40
0.000000000
  9
$TDUPDATE
 40
0.000000000
  9
$TDUUPDATE
 40
0.000000000
  9
$TDINDWG
 40
0.0000000000
  9
$TDUSRTIMER
 40
0.0000000000
  9
$USRTIMER
 70
     1
  9
$ANGBASE
 50
0.0
  9
$ANGDIR
 70
     0
  9
$PDMODE
 70
     0
  9
$PDSIZE
 40
0.0
  9
$PLINEWID
 40
0.0
  9
$SPLFRAME
 70
     0
  9
$SPLINETYPE
 70
     6
  9
$SPLINESEGS
 70
     8
  9
$HANDSEED
  5
22F
  9
$SURFTAB1
 70
     6
  9
$SURFTAB2
 70
     6
  9
$SURFTYPE
 70
     6
  9
$SURFU
 70
     6
  9
$SURFV
 70
     6
  9
$UCSBASE
  2

  9
$UCSNAME
  2

  9
$UCSORG
 10
0.0
 20
0.0
 30
0.0
  9
$UCSXDIR
 10
1.0
 20
0.0
 30
0.0
  9
$UCSYDIR
 10
0.0
 20
1.0
 30
0.0
  9
$UCSORTHOREF
  2

  9
$UCSORTHOVIEW
 70
     0
  9
$UCSORGTOP
 10
0.0
 20
0.0
 30
0.0
  9
$UCSORGBOTTOM
 10
0.0
 20
0.0
 30
0.0
  9
$UCSORGLEFT
 10
0.0
 20
0.0
 30
0.0
  9
$UCSORGRIGHT
 10
0.0
 20
0.0
 30
0.0
  9
$UCSORGFRONT
 10
0.0
 20
0.0
 30
0.0
  9
$UCSORGBACK
 10
0.0
 20
0.0
 30
0.0
  9
$PUCSBASE
  2

  9
$PUCSNAME
  2

  9
$PUCSORG
 10
0.0
 20
0.0
 30
0.0
  9
$PUCSXDIR
 10
1.0
 20
0.0
 30
0.0
  9
$PUCSYDIR
 10
0.0
 20
1.0
 30
0.0
  9
$PUCSORTHOREF
  2

  9
$PUCSORTHOVIEW
 70
     0
  9
$PUCSORGTOP
 10
0.0
 20
0.0
 30
0.0
  9
$PUCSORGBOTTOM
 10
0.0
 20
0.0
 30
0.0
  9
$PUCSORGLEFT
 10
0.0
 20
0.0
 30
0.0
  9
$PUCSORGRIGHT
 10
0.0
 20
0.0
 30
0.0
  9
$PUCSORGFRONT
 10
0.0
 20
0.0
 30
0.0
  9
$PUCSORGBACK
 10
0.0
 20
0.0
 30
0.0
  9
$USERI1
 70
     0
  9
$USERI2
 70
     0
  9
$USERI3
 70
     0
  9
$USERI4
 70
     0
  9
$USERI5
 70
     0
  9
$USERR1
 40
0.0
  9
$USERR2
 40
0.0
  9
$USERR3
 40
0.0
  9
$USERR4
 40
0.0
  9
$USERR5
 40
0.0
  9
$WORLDVIEW
 70
     1
  9
$SHADEDGE
 70
     3
  9
$SHADEDIF
 70
    70
  9
$TILEMODE
 70
     1
  9
$MAXACTVP
 70
    16
  9
$PINSBASE
 10
0.0
 20
0.0
 30
0.0
  9
$PLIMCHECK
 70
     0
  9
$PEXTMIN
 10
1.000000E+20
 20
1.000000E+20
 30
1.000000E+20
  9
$PEXTMAX
 10
-1.000000E+20
 20
-1.000000E+20
 30
-1.000000E+20
  9
$PLIMMIN
 10
0.0
 20
0.0
  9
$PLIMMAX
 10
12.0
 20
9.0
  9
$UNITMODE
 70
     0
  9
$VISRETAIN
 70
     0
  9
$PLINEGEN
 70
     1
  9
$PSLTSCALE
 70
     0
  9
$TREEDEPTH
 70
  3020
  9
$CMLSTYLE
  2
Standard
  9
$CMLJUST
 70
     0
  9
$CMLSCALE
 40
1.0
  9
$PROXYGRAPHICS
 70
     0
  9
$MEASUREMENT
 70
     0
  9
$CELWEIGHT
370
     0
  9
$ENDCAPS
280
     0
  9
$JOINSTYLE
280
     0
  9
$LWDISPLAY
290
     0
  9
$INSUNITS
 70
     0
  9
$HYPERLINKBASE
  1

  9
$XEDIT
290
     1
  9
$CEPSNTYPE
380
     0
  9
$PSTYLEMODE
290
     1
  9
$FINGERPRINTGUID
  2

  9
$VERSIONGUID
  2

  9
$EXTNAMES
290
     1
  9
$PSVPSCALE
 40
0.0
  0
ENDSEC
  0
SECTION
  2
CLASSES
  0
CLASS
  1
LWPOLYLINE
  2
AcDbPolyline
  3
"AutoCAD"
 90
        0
280
     0
281
     1
  0
CLASS
  1
IMAGE
  2
AcDbRasterImage
  3
ISM
 90
      127
280
     0
281
     1
  0
CLASS
  1
OLE2FRAME
  2
AcDbOle2Frame
  3
""
 90
        0
280
     0
281
     1
  0
CLASS
  1
HATCH
  2
AcDbHatch
  3
"ACAD_SEDONA"
 90
        0
280
     0
281
     1
  0
CLASS
  1
DICTIONARYVAR
  2
AcDbDictionaryVar
  3
"AutoCAD"
 90
        0
280
     0
281
     0
  0
CLASS
  1
RASTERVARIABLES
  2
AcDbRasterVariables
  3
ISM
 90
        0
280
     0
281
     0
  0
CLASS
  1
IMAGEDEF
  2
AcDbRasterImageDef
  3
ISM
 90
        0
280
     0
281
     0
  0
CLASS
  1
IMAGEDEF_REACTOR
  2
AcDbRasterImageDefReactor
  3
ISM
 90
        1
280
     0
281
     0
  0
CLASS
  1
IDBUFFER
  2
AcDbIdBuffer
  3
"Acad"
 90
        0
280
     0
281
     0
  0
CLASS
  1
SPATIAL_FILTER
  2
AcDbSpatialFilter
  3
"Acad"
 90
        0
280
     0
281
     0
  0
CLASS
  1
XRECORD
  2
AcDbXrecord
  3
"<Built In>"
 90
        0
280
     0
281
     0
  0
CLASS
  1
SORTENTSTABLE
  2
AcDbSortentsTable
  3
"AutoCAD"
 90
        0
280
     0
281
     0
  0
CLASS
  1
LAYER_INDEX
  2
AcDbLayerIndex
  3
"Acad"
 90
        0
280
     0
281
     0
  0
CLASS
  1
SPATIAL_INDEX
  2
AcDbSpatialIndex
  3
"Acad"
 90
        0
280
     0
281
     0
  0
CLASS
  1
OBJECT_PTR
  2
CAseDLPNTableRecord
  3
"ASE-LPNTableRecord"
 90
        1
280
     0
281
     0
  0
CLASS
  1
LAYOUT
  2
AcDbLayout
  3
"AutoCAD 2000"
 90
        1
280
     0
281
     0
  0
CLASS
  1
PLOTSETTINGS
  2
AcDbPlotSettings
  3
"AutoCAD 2000"
 90
        1
280
     0
281
     0
  0
CLASS
  1
ACDBDICTIONARYWDFLT
  2
AcDbDictionaryWithDefault
  3
"AutoCAD 2000"
 90
        1
280
     0
281
     0
  0
CLASS
  1
ACDBPLACEHOLDER
  2
AcDbPlaceHolder
  3
"AutoCAD 2000"
 90
        1
280
     0
281
     0
  0
CLASS
  1
VBA_PROJECT
  2
AcDbVbaProject
  3
"acadvba"
 90
        1
280
     0
281
     0
  0
CLASS
  1
WIPEOUT
  2
AcDbWipeout
  3
WipeOut|AutoCAD Express Tool|expresstools@autodesk.com
 90
      127
280
     0
281
     1
  0
CLASS
  1
WIPEOUTVARIABLES
  2
AcDbWipeoutVariables
  3
WipeOut|AutoCAD Express Tool|expresstools@autodesk.com
 90
        0
280
     0
281
     0
  0
CLASS
  1
RTEXT
  2
RText
  3
RText|AutoCAD Express Tool|expresstools@autodesk.com
 90
        0
280
     0
281
     1
  0
CLASS
  1
ARCALIGNEDTEXT
  2
AcDbArcAlignedText
  3
ATEXT|AutoCAD Express Tool|expresstools@autodesk.com
 90
        0
280
     0
281
     1
  0
ENDSEC
  0
SECTION
  2
TABLES
  0
TABLE
  2
VPORT
  5
7
100
AcDbSymbolTable
 70
     1
  0
VPORT
  5
15
100
AcDbSymbolTableRecord
100
AcDbViewportTableRecord
  2
*ACTIVE
 70
     0
 10
0.0
 20
0.0
 11
1.0
 21
1.0
 12
6.591288
 22
4.579184
 13
0.0
 23
0.0
 14
1.0
 24
1.0
 15
0.0
 25
0.0
 16
0.0
 26
0.0
 36
1.0
 17
0.0
 27
0.0
 37
0.0
 40
9.158369
 41
0.688564
 42
50.0
 43
0.0
 44
0.0
 50
0.0
 51
0.0
 71
     0
 72
   100
 73
     1
 74
     1
 75
     0
 76
     0
 77
     0
 78
     0
281
     0
 65
     0
110
0.0
120
0.0
130
0.0
111
1.0
121
0.0
131
0.0
112
0.0
122
1.0
132
0.0
345
0
346
0
 79
     0
146
0.0
  0
ENDTAB
  0
TABLE
  2
LTYPE
  5
4
100
AcDbSymbolTable
 70
     3
  0
LTYPE
  5
11
100
AcDbSymbolTableRecord
100
AcDbLinetypeTableRecord
  2
ByBlock
 70
    64
  3

 72
    65
 73
     0
 40
0.0
  0
LTYPE
  5
12
100
AcDbSymbolTableRecord
100
AcDbLinetypeTableRecord
  2
ByLayer
 70
    64
  3

 72
    65
 73
     0
 40
0.0
  0
LTYPE
  5
13
100
AcDbSymbolTableRecord
100
AcDbLinetypeTableRecord
  2
Continuous
 70
    64
  3
Solid line
 72
    65
 73
     0
 40
0.0
  0
ENDTAB
  0
TABLE
  2
LAYER
  5
2
100
AcDbSymbolTable
 70
     2
  0
LAYER
  5
14
100
AcDbSymbolTableRecord
100
AcDbLayerTableRecord
  2
0
 70
     0
 62
     7
  6
Continuous
290
     1
370
    -3
390
1D
  0
LAYER
  5
28
100
AcDbSymbolTableRecord
100
AcDbLayerTableRecord
  2
EBENE_1
 70
     0
 62
   160
  6
Continuous
290
     1
370
    -3
390
1F
  0
ENDTAB
  0
TABLE
  2
STYLE
  5
3
100
AcDbSymbolTable
 70
     5
  0
STYLE
  5
17
100
AcDbSymbolTableRecord
100
AcDbTextStyleTableRecord
  2
Standard
 70
     0
 40
0.0
 41
1.0
 50
0.0
 71
     0
 42
0.0
  3
txt
  4

  0
STYLE
  5
24
100
AcDbSymbolTableRecord
100
AcDbTextStyleTableRecord
  2
STD
 70
     0
 40
0.0
 41
1.0
 50
0.0
 71
     0
 42
0.0
  3
txt
  4

  0
STYLE
  5
25
100
AcDbSymbolTableRecord
100
AcDbTextStyleTableRecord
  2
TATESTD
 70
     4
 40
0.0
 41
1.0
 50
0.0
 71
     0
 42
0.0
  3
txt
  4

  0
STYLE
  5
26
100
AcDbSymbolTableRecord
100
AcDbTextStyleTableRecord
  2
KANJISTD
 70
     0
 40
0.0
 41
1.0
 50
0.0
 71
     0
 42
0.0
  3
txt
  4
extfont
  0
STYLE
  5
27
100
AcDbSymbolTableRecord
100
AcDbTextStyleTableRecord
  2
KANJITATE
 70
     4
 40
0.0
 41
1.0
 50
0.0
 71
     0
 42
0.0
  3
txt
  4
extfont
  0
ENDTAB
  0
TABLE
  2
VIEW
  5
5
100
AcDbSymbolTable
 70
     0
  0
ENDTAB
  0
TABLE
  2
UCS
  5
6
100
AcDbSymbolTable
 70
     0
  0
ENDTAB
  0
TABLE
  2
APPID
  5
8
100
AcDbSymbolTable
 70
     1
  0
APPID
  5
16
100
AcDbSymbolTableRecord
100
AcDbRegAppTableRecord
  2
ACAD
 70
     0
  0
ENDTAB
  0
TABLE
  2
DIMSTYLE
  5
9
100
AcDbSymbolTable
 70
     1
100
AcDbDimStyleTable
 71
     0
  0
DIMSTYLE
105
18
100
AcDbSymbolTableRecord
100
AcDbDimStyleTableRecord
  2
Standard
 70
     0
  3

  4

 40
1.0
 41
0.18
 42
0.0625
 43
0.38
 44
0.18
 45
0.0
 46
0.0
 47
0.0
 48
0.0
 71
     0
 72
     0
 73
     1
 74
     1
 75
     0
 76
     0
 77
     0
 78
     0
 79
     0
140
0.18
141
0.09
142
0.0
143
25.4
144
1.0
145
0.0
146
1.0
147
0.09
148
0.0
170
     0
171
     2
172
     0
173
     0
174
     0
175
     0
176
     0
177
     0
178
     0
179
     0
271
     4
272
     4
273
     2
274
     2
275
     0
276
     0
277
     2
278
    46
279
     0
280
     0
281
     0
282
     0
283
     1
284
     0
285
     0
286
     0
288
     0
340
17
341
0
342
0
343
0
344
0
371
    -2
372
    -2
  0
ENDTAB
  0
TABLE
  2
BLOCK_RECORD
  5
1
100
AcDbSymbolTable
 70
     0
  0
BLOCK_RECORD
  5
A
100
AcDbSymbolTableRecord
100
AcDbBlockTableRecord
  2
*MODEL_SPACE
340
20
  0
BLOCK_RECORD
  5
B
100
AcDbSymbolTableRecord
100
AcDbBlockTableRecord
  2
*PAPER_SPACE
340
21
  0
ENDTAB
  0
ENDSEC
  0
SECTION
  2
BLOCKS
  0
BLOCK
  5
D
100
AcDbEntity
  8
0
100
AcDbBlockBegin
  2
*MODEL_SPACE
 70
     0
 10
0.0
 20
0.0
 30
0.0
  3
*MODEL_SPACE
  1

  0
ENDBLK
  5
E
100
AcDbEntity
  8
0
100
AcDbBlockEnd
  0
BLOCK
  5
F
100
AcDbEntity
 67
     1
  8
0
100
AcDbBlockBegin
  2
*PAPER_SPACE
 70
     0
 10
0.0
 20
0.0
 30
0.0
  3
*PAPER_SPACE
  1

  0
ENDBLK
  5
10
100
AcDbEntity
 67
     1
  8
0
100
AcDbBlockEnd
  0
ENDSEC
  0
SECTION
  2
ENTITIES
  0
LINE
  5
22E
100
AcDbEntity
  8
EBENE_1
 62
   250
100
AcDbLine
 10
120.52391
 20
186.587577
 30
0.0
 11
122.62404
 21
186.587577
 31
0.0
  0
LINE
  5
22D
100
AcDbEntity
  8
EBENE_1
 62
   250
100
AcDbLine
 10
122.62404
 20
181.337596
 30
0.0
 11
120.52391
 21
181.337596
 31
0.0
  0
LINE
  5
22C
100
AcDbEntity
  8
EBENE_1
 62
   250
100
AcDbLine
 10
122.220275
 20
179.17666
 30
0.0
 11
33.083941
 21
179.167531
 31
0.0
  0
LINE
  5
22B
100
AcDbEntity
  8
EBENE_1
 62
   250
100
AcDbLine
 10
-2.915929
 20
144.670584
 30
0.0
 11
-2.915929
 21
133.670394
 31
0.0
  0
POLYLINE
  5
222
100
AcDbEntity
  8
EBENE_1
 62
   250
100
AcDb2dPolyline
 66
     1
 10
0.0
 20
0.0
 30
0.0
 70
     1
  0
VERTEX
  5
223
100
AcDbEntity
  8
EBENE_1
 62
   250
100
AcDbVertex
100
AcDb2dVertex
 10
-4.040925
 20
134.67085
 30
0.0
  0
VERTEX
  5
224
100
AcDbEntity
  8
EBENE_1
 62
   250
100
AcDbVertex
100
AcDb2dVertex
 10
-4.040925
 20
143.670817
 30
0.0
  0
VERTEX
  5
225
100
AcDbEntity
  8
EBENE_1
 62
   250
100
AcDbVertex
100
AcDb2dVertex
 10
-2.915929
 20
144.670584
 30
0.0
  0
VERTEX
  5
226
100
AcDbEntity
  8
EBENE_1
 62
   250
100
AcDbVertex
100
AcDb2dVertex
 10
19.021578
 20
144.670584
 30
0.0
  0
VERTEX
  5
227
100
AcDbEntity
  8
EBENE_1
 62
   250
100
AcDbVertex
100
AcDb2dVertex
 10
19.021578
 20
133.670394
 30
0.0
  0
VERTEX
  5
228
100
AcDbEntity
  8
EBENE_1
 62
   250
100
AcDbVertex
100
AcDb2dVertex
 10
-2.915929
 20
133.670394
 30
0.0
  0
VERTEX
  5
229
100
AcDbEntity
  8
EBENE_1
 62
   250
100
AcDbVertex
100
AcDb2dVertex
 10
-4.040925
 20
134.67085
 30
0.0
  0
SEQEND
  5
22A
100
AcDbEntity
  8
EBENE_1
 62
   250
  0
POLYLINE
  5
21C
100
AcDbEntity
  8
EBENE_1
 62
   250
100
AcDb2dPolyline
 66
     1
 10
0.0
 20
0.0
 30
0.0
 70
     1
  0
VERTEX
  5
21D
100
AcDbEntity
  8
EBENE_1
 62
   250
100
AcDbVertex
100
AcDb2dVertex
 10
19.021578
 20
109.170942
 30
0.0
  0
VERTEX
  5
21E
100
AcDbEntity
  8
EBENE_1
 62
   250
100
AcDbVertex
100
AcDb2dVertex
 10
21.834154
 20
109.170942
 30
0.0
  0
VERTEX
  5
21F
100
AcDbEntity
  8
EBENE_1
 62
   250
100
AcDbVertex
100
AcDb2dVertex
 10
21.834154
 20
169.170553
 30
0.0
  0
VERTEX
  5
220
100
AcDbEntity
  8
EBENE_1
 62
   250
100
AcDbVertex
100
AcDb2dVertex
 10
19.021578
 20
169.170553
 30
0.0
  0
SEQEND
  5
221
100
AcDbEntity
  8
EBENE_1
 62
   250
  0
POLYLINE
  5
216
100
AcDbEntity
  8
EBENE_1
 62
   250
100
AcDb2dPolyline
 66
     1
 10
0.0
 20
0.0
 30
0.0
 70
     1
  0
VERTEX
  5
217
100
AcDbEntity
  8
EBENE_1
 62
   250
100
AcDbVertex
100
AcDb2dVertex
 10
21.834154
 20
89.170785
 30
0.0
  0
VERTEX
  5
218
100
AcDbEntity
  8
EBENE_1
 62
   250
100
AcDbVertex
100
AcDb2dVertex
 10
33.083941
 20
89.170785
 30
0.0
  0
VERTEX
  5
219
100
AcDbEntity
  8
EBENE_1
 62
   250
100
AcDbVertex
100
AcDb2dVertex
 10
33.083941
 20
189.170538
 30
0.0
  0
VERTEX
  5
21A
100
AcDbEntity
  8
EBENE_1
 62
   250
100
AcDbVertex
100
AcDb2dVertex
 10
21.834154
 20
189.170538
 30
0.0
  0
SEQEND
  5
21B
100
AcDbEntity
  8
EBENE_1
 62
   250
  0
POLYLINE
  5
210
100
AcDbEntity
  8
EBENE_1
 62
   250
100
AcDb2dPolyline
 66
     1
 10
0.0
 20
0.0
 30
0.0
  0
VERTEX
  5
211
100
AcDbEntity
  8
EBENE_1
 62
   250
100
AcDbVertex
100
AcDb2dVertex
 10
33.083941
 20
99.170519
 30
0.0
  0
VERTEX
  5
212
100
AcDbEntity
  8
EBENE_1
 62
   250
100
AcDbVertex
100
AcDb2dVertex
 10
122.608192
 20
99.170519
 30
0.0
  0
VERTEX
  5
213
100
AcDbEntity
  8
EBENE_1
 62
   250
100
AcDbVertex
100
AcDb2dVertex
 10
122.608192
 20
179.170631
 30
0.0
  0
VERTEX
  5
214
100
AcDbEntity
  8
EBENE_1
 62
   250
100
AcDbVertex
100
AcDb2dVertex
 10
122.151028
 20
179.170631
 30
0.0
  0
SEQEND
  5
215
100
AcDbEntity
  8
EBENE_1
 62
   250
  0
POLYLINE
  5
20A
100
AcDbEntity
  8
EBENE_1
 62
   250
100
AcDb2dPolyline
 66
     1
 10
0.0
 20
0.0
 30
0.0
 70
     1
  0
VERTEX
  5
20B
100
AcDbEntity
  8
EBENE_1
 62
   250
100
AcDbVertex
100
AcDb2dVertex
 10
122.83488
 20
99.170519
 30
0.0
  0
VERTEX
  5
20C
100
AcDbEntity
  8
EBENE_1
 62
   250
100
AcDbVertex
100
AcDb2dVertex
 10
127.834402
 20
99.170519
 30
0.0
  0
VERTEX
  5
20D
100
AcDbEntity
  8
EBENE_1
 62
   250
100
AcDbVertex
100
AcDb2dVertex
 10
127.834402
 20
219.170601
 30
0.0
  0
VERTEX
  5
20E
100
AcDbEntity
  8
EBENE_1
 62
   250
100
AcDbVertex
100
AcDb2dVertex
 10
122.83488
 20
219.170601
 30
0.0
  0
SEQEND
  5
20F
100
AcDbEntity
  8
EBENE_1
 62
   250
  0
POLYLINE
  5
204
100
AcDbEntity
  8
EBENE_1
 62
   250
100
AcDb2dPolyline
 66
     1
 10
0.0
 20
0.0
 30
0.0
  0
VERTEX
  5
205
100
AcDbEntity
  8
EBENE_1
 62
   250
100
AcDbVertex
100
AcDb2dVertex
 10
214.834776
 20
181.170509
 30
0.0
  0
VERTEX
  5
206
100
AcDbEntity
  8
EBENE_1
 62
   250
100
AcDbVertex
100
AcDb2dVertex
 10
214.834776
 20
219.170601
 30
0.0
  0
VERTEX
  5
207
100
AcDbEntity
  8
EBENE_1
 62
   250
100
AcDbVertex
100
AcDb2dVertex
 10
199.834831
 20
219.170601
 30
0.0
  0
VERTEX
  5
208
100
AcDbEntity
  8
EBENE_1
 62
   250
100
AcDbVertex
100
AcDb2dVertex
 10
199.834831
 20
142.170822
 30
0.0
  0
SEQEND
  5
209
100
AcDbEntity
  8
EBENE_1
 62
   250
  0
LINE
  5
203
100
AcDbEntity
  8
EBENE_1
 62
   250
100
AcDbLine
 10
214.827197
 20
138.762245
 30
0.0
 11
214.827197
 21
182.450362
 31
0.0
  0
LINE
  5
202
100
AcDbEntity
  8
EBENE_1
 62
   250
100
AcDbLine
 10
127.512975
 20
142.170822
 30
0.0
 11
214.834776
 21
142.170822
 31
0.0
  0
POLYLINE
  5
1FB
100
AcDbEntity
  8
EBENE_1
 62
   250
100
AcDb2dPolyline
 66
     1
 10
0.0
 20
0.0
 30
0.0
  0
VERTEX
  5
1FC
100
AcDbEntity
  8
EBENE_1
 62
   250
100
AcDbVertex
100
AcDb2dVertex
 10
199.834831
 20
142.170822
 30
0.0
  0
VERTEX
  5
1FD
100
AcDbEntity
  8
EBENE_1
 62
   250
100
AcDbVertex
100
AcDb2dVertex
 10
199.834831
 20
99.170519
 30
0.0
  0
VERTEX
  5
1FE
100
AcDbEntity
  8
EBENE_1
 62
   250
100
AcDbVertex
100
AcDb2dVertex
 10
214.834776
 20
99.170519
 30
0.0
  0
VERTEX
  5
1FF
100
AcDbEntity
  8
EBENE_1
 62
   250
100
AcDbVertex
100
AcDb2dVertex
 10
214.834776
 20
139.170833
 30
0.0
  0
VERTEX
  5
200
100
AcDbEntity
  8
EBENE_1
 62
   250
100
AcDbVertex
100
AcDb2dVertex
 10
204.834353
 20
139.170833
 30
0.0
  0
SEQEND
  5
201
100
AcDbEntity
  8
EBENE_1
 62
   250
  0
POLYLINE
  5
1F5
100
AcDbEntity
  8
EBENE_1
 62
   250
100
AcDb2dPolyline
 66
     1
 10
0.0
 20
0.0
 30
0.0
 70
     1
  0
VERTEX
  5
1F6
100
AcDbEntity
  8
EBENE_1
 62
   250
100
AcDbVertex
100
AcDb2dVertex
 10
127.834402
 20
99.170519
 30
0.0
  0
VERTEX
  5
1F7
100
AcDbEntity
  8
EBENE_1
 62
   250
100
AcDbVertex
100
AcDb2dVertex
 10
199.834831
 20
99.170519
 30
0.0
  0
VERTEX
  5
1F8
100
AcDbEntity
  8
EBENE_1
 62
   250
100
AcDbVertex
100
AcDb2dVertex
 10
199.834831
 20
219.170601
 30
0.0
  0
VERTEX
  5
1F9
100
AcDbEntity
  8
EBENE_1
 62
   250
100
AcDbVertex
100
AcDb2dVertex
 10
127.834402
 20
219.170601
 30
0.0
  0
SEQEND
  5
1FA
100
AcDbEntity
  8
EBENE_1
 62
   250
  0
LINE
  5
1F4
100
AcDbEntity
  8
EBENE_1
 62
   250
100
AcDbLine
 10
214.834776
 20
212.170684
 30
0.0
 11
122.83488
 21
212.170684
 31
0.0
  0
POLYLINE
  5
1EF
100
AcDbEntity
  8
EBENE_1
 62
   250
100
AcDb2dPolyline
 66
     1
 10
0.0
 20
0.0
 30
0.0
  0
VERTEX
  5
1F0
100
AcDbEntity
  8
EBENE_1
 62
   250
100
AcDbVertex
100
AcDb2dVertex
 10
214.834776
 20
152.170729
 30
0.0
  0
VERTEX
  5
1F1
100
AcDbEntity
  8
EBENE_1
 62
   250
100
AcDbVertex
100
AcDb2dVertex
 10
214.834776
 20
142.170822
 30
0.0
  0
VERTEX
  5
1F2
100
AcDbEntity
  8
EBENE_1
 62
   250
100
AcDbVertex
100
AcDb2dVertex
 10
204.834353
 20
142.170822
 30
0.0
  0
SEQEND
  5
1F3
100
AcDbEntity
  8
EBENE_1
 62
   250
  0
LINE
  5
1EE
100
AcDbEntity
  8
EBENE_1
 62
   250
100
AcDbLine
 10
214.834776
 20
168.170441
 30
0.0
 11
214.834776
 21
178.17052
 31
0.0
  0
LINE
  5
1ED
100
AcDbEntity
  8
EBENE_1
 62
   250
100
AcDbLine
 10
214.834776
 20
155.170718
 30
0.0
 11
214.834776
 21
165.170452
 31
0.0
  0
LINE
  5
1EC
100
AcDbEntity
  8
EBENE_1
 62
   250
100
AcDbLine
 10
21.834154
 20
99.170519
 30
0.0
 11
21.834154
 21
179.170631
 31
0.0
  0
MTEXT
  5
1EB
100
AcDbEntity
  8
EBENE_1
 62
   250
100
AcDbMText
 10
-19.980176
 20
142.345374
 30
0.0
 40
3.674769
 41
0.0
 71
     1
 72
     2
  1
\fMyriad Roman|b0|i0; 11k6
  7
STD
210
0.0
220
0.0
230
1.0
 11
1.000001
 21
0.0
 31
0.0
 73
     1
 44
1.0
  0
POLYLINE
  5
1E6
100
AcDbEntity
  8
EBENE_1
 62
   250
100
AcDb2dPolyline
 66
     1
 10
0.0
 20
0.0
 30
0.0
 70
     1
  0
VERTEX
  5
1E7
100
AcDbEntity
  8
EBENE_1
 62
   250
100
AcDbVertex
100
AcDb2dVertex
 10
-13.502707
 20
133.736195
 30
0.0
  0
VERTEX
  5
1E8
100
AcDbEntity
  8
EBENE_1
 62
   250
100
AcDbVertex
100
AcDb2dVertex
 10
-12.381329
 20
129.735061
 30
0.0
  0
VERTEX
  5
1E9
100
AcDbEntity
  8
EBENE_1
 62
   250
100
AcDbVertex
100
AcDb2dVertex
 10
-14.62443
 20
129.735061
 30
0.0
  0
SEQEND
  5
1EA
100
AcDbEntity
  8
EBENE_1
 62
   250
  0
HATCH
  5
1E5
100
AcDbEntity
  8
EBENE_1
 62
   250
100
AcDbHatch
 10
0.0
 20
0.0
 30
0.0
210
0.0
220
0.0
230
1.0
  2
SOLID
 70
     1
 71
     0
 91
        1
 92
        3
 72
     0
 73
     1
 93
        3
 10
-13.502707248263887
 20
133.73619520399305
 10
-12.381328667534721
 20
129.7350613064236
 10
-14.624430338541666
 20
129.7350613064236
 97
        0
 75
     0
 76
     1
 98
        1
 10
0.0
 20
0.0
  0
LINE
  5
1E4
100
AcDbEntity
  8
EBENE_1
 62
   250
100
AcDbLine
 10
-13.415374
 20
144.737074
 30
0.0
 11
-13.415374
 21
152.958967
 31
0.0
  0
POLYLINE
  5
1DF
100
AcDbEntity
  8
EBENE_1
 62
   250
100
AcDb2dPolyline
 66
     1
 10
0.0
 20
0.0
 30
0.0
 70
     1
  0
VERTEX
  5
1E0
100
AcDbEntity
  8
EBENE_1
 62
   250
100
AcDbVertex
100
AcDb2dVertex
 10
-13.415374
 20
144.656114
 30
0.0
  0
VERTEX
  5
1E1
100
AcDbEntity
  8
EBENE_1
 62
   250
100
AcDbVertex
100
AcDb2dVertex
 10
-14.537097
 20
148.656559
 30
0.0
  0
VERTEX
  5
1E2
100
AcDbEntity
  8
EBENE_1
 62
   250
100
AcDbVertex
100
AcDb2dVertex
 10
-12.293995
 20
148.656559
 30
0.0
  0
SEQEND
  5
1E3
100
AcDbEntity
  8
EBENE_1
 62
   250
  0
HATCH
  5
1DE
100
AcDbEntity
  8
EBENE_1
 62
   250
100
AcDbHatch
 10
0.0
 20
0.0
 30
0.0
210
0.0
220
0.0
230
1.0
  2
SOLID
 70
     1
 71
     0
 91
        1
 92
        3
 72
     0
 73
     1
 93
        3
 10
-13.415374077690972
 20
144.65611436631943
 10
-14.537097167968749
 20
148.65655924479165
 10
-12.293995496961804
 20
148.65655924479165
 97
        0
 75
     0
 76
     1
 98
        1
 10
0.0
 20
0.0
  0
LINE
  5
1DD
100
AcDbEntity
  8
EBENE_1
 62
   250
100
AcDbLine
 10
-28.456316
 20
136.624219
 30
0.0
 11
-28.456316
 21
109.02487
 31
0.0
  0
LINE
  5
1DC
100
AcDbEntity
  8
EBENE_1
 62
   250
100
AcDbLine
 10
19.584162
 20
169.170553
 30
0.0
 11
-28.288368
 21
169.170553
 31
0.0
  0
LINE
  5
1DB
100
AcDbEntity
  8
EBENE_1
 62
   250
100
AcDbLine
 10
19.021578
 20
109.170942
 30
0.0
 11
-28.382764
 21
109.170942
 31
0.0
  0
MTEXT
  5
1DA
100
AcDbEntity
  8
EBENE_1
 62
   250
100
AcDbMText
 10
73.372782
 20
142.741904
 30
0.0
 40
3.674769
 41
0.0
 71
     1
 72
     2
  1
\fMyriad Roman|b0|i0; 80.0 
  7
STD
210
0.0
220
0.0
230
1.0
 11
1.000001
 21
0.0
 31
0.0
 73
     1
 44
1.0
  0
POLYLINE
  5
1D5
100
AcDbEntity
  8
EBENE_1
 62
   250
100
AcDb2dPolyline
 66
     1
 10
0.0
 20
0.0
 30
0.0
 70
     1
  0
VERTEX
  5
1D6
100
AcDbEntity
  8
EBENE_1
 62
   250
100
AcDbVertex
100
AcDb2dVertex
 10
78.772625
 20
179.170631
 30
0.0
  0
VERTEX
  5
1D7
100
AcDbEntity
  8
EBENE_1
 62
   250
100
AcDbVertex
100
AcDb2dVertex
 10
79.894004
 20
175.169497
 30
0.0
  0
VERTEX
  5
1D8
100
AcDbEntity
  8
EBENE_1
 62
   250
100
AcDbVertex
100
AcDb2dVertex
 10
77.65073
 20
175.169497
 30
0.0
  0
SEQEND
  5
1D9
100
AcDbEntity
  8
EBENE_1
 62
   250
  0
HATCH
  5
1D4
100
AcDbEntity
  8
EBENE_1
 62
   250
100
AcDbHatch
 10
0.0
 20
0.0
 30
0.0
210
0.0
220
0.0
230
1.0
  2
SOLID
 70
     1
 71
     0
 91
        1
 92
        3
 72
     0
 73
     1
 93
        3
 10
78.772625054253467
 20
179.17063123914929
 10
79.894003634982639
 20
175.16949734157984
 10
77.650729709201386
 20
175.16949734157984
 97
        0
 75
     0
 76
     1
 98
        1
 10
0.0
 20
0.0
  0
LINE
  5
1D3
100
AcDbEntity
  8
EBENE_1
 62
   250
100
AcDbLine
 10
78.772625
 20
143.768658
 30
0.0
 11
78.772625
 21
179.170631
 31
0.0
  0
POLYLINE
  5
1CE
100
AcDbEntity
  8
EBENE_1
 62
   250
100
AcDb2dPolyline
 66
     1
 10
0.0
 20
0.0
 30
0.0
 70
     1
  0
VERTEX
  5
1CF
100
AcDbEntity
  8
EBENE_1
 62
   250
100
AcDbVertex
100
AcDb2dVertex
 10
78.772625
 20
99.170519
 30
0.0
  0
VERTEX
  5
1D0
100
AcDbEntity
  8
EBENE_1
 62
   250
100
AcDbVertex
100
AcDb2dVertex
 10
77.65073
 20
103.171653
 30
0.0
  0
VERTEX
  5
1D1
100
AcDbEntity
  8
EBENE_1
 62
   250
100
AcDbVertex
100
AcDb2dVertex
 10
79.894004
 20
103.171653
 30
0.0
  0
SEQEND
  5
1D2
100
AcDbEntity
  8
EBENE_1
 62
   250
  0
HATCH
  5
1CD
100
AcDbEntity
  8
EBENE_1
 62
   250
100
AcDbHatch
 10
0.0
 20
0.0
 30
0.0
210
0.0
220
0.0
230
1.0
  2
SOLID
 70
     1
 71
     0
 91
        1
 92
        3
 72
     0
 73
     1
 93
        3
 10
78.772625054253467
 20
99.170518663194429
 10
77.650729709201386
 20
103.17165256076387
 10
79.894003634982639
 20
103.17165256076387
 97
        0
 75
     0
 76
     1
 98
        1
 10
0.0
 20
0.0
  0
LINE
  5
1CC
100
AcDbEntity
  8
EBENE_1
 62
   250
100
AcDbLine
 10
78.772625
 20
137.226421
 30
0.0
 11
78.772625
 21
99.170519
 31
0.0
  0
MTEXT
  5
1CB
100
AcDbEntity
  8
EBENE_1
 62
   250
100
AcDbMText
 10
162.334966
 20
233.845388
 30
0.0
 40
3.674769
 41
0.0
 71
     1
 72
     2
  1
\fMyriad Roman|b0|i0; 92.0 
  7
STD
210
0.0
220
0.0
230
1.0
 11
1.000001
 21
0.0
 31
0.0
 73
     1
 44
1.0
  0
POLYLINE
  5
1C6
100
AcDbEntity
  8
EBENE_1
 62
   250
100
AcDb2dPolyline
 66
     1
 10
0.0
 20
0.0
 30
0.0
 70
     1
  0
VERTEX
  5
1C7
100
AcDbEntity
  8
EBENE_1
 62
   250
100
AcDbVertex
100
AcDb2dVertex
 10
122.83488
 20
231.170558
 30
0.0
  0
VERTEX
  5
1C8
100
AcDbEntity
  8
EBENE_1
 62
   250
100
AcDbVertex
100
AcDb2dVertex
 10
126.836013
 20
232.167569
 30
0.0
  0
VERTEX
  5
1C9
100
AcDbEntity
  8
EBENE_1
 62
   250
100
AcDbVertex
100
AcDb2dVertex
 10
126.836013
 20
230.173547
 30
0.0
  0
SEQEND
  5
1CA
100
AcDbEntity
  8
EBENE_1
 62
   250
  0
HATCH
  5
1C5
100
AcDbEntity
  8
EBENE_1
 62
   250
100
AcDbHatch
 10
0.0
 20
0.0
 30
0.0
210
0.0
220
0.0
230
1.0
  2
SOLID
 70
     1
 71
     0
 91
        1
 92
        3
 72
     0
 73
     1
 93
        3
 10
122.83487955729166
 20
231.17055799696178
 10
126.8360134548611
 20
232.16756863064234
 10
126.8360134548611
 20
230.17354736328122
 97
        0
 75
     0
 76
     1
 98
        1
 10
0.0
 20
0.0
  0
LINE
  5
1C4
100
AcDbEntity
  8
EBENE_1
 62
   250
100
AcDbLine
 10
162.334966
 20
231.170558
 30
0.0
 11
122.83488
 21
231.170558
 31
0.0
  0
POLYLINE
  5
1BF
100
AcDbEntity
  8
EBENE_1
 62
   250
100
AcDb2dPolyline
 66
     1
 10
0.0
 20
0.0
 30
0.0
 70
     1
  0
VERTEX
  5
1C0
100
AcDbEntity
  8
EBENE_1
 62
   250
100
AcDbVertex
100
AcDb2dVertex
 10
214.834776
 20
231.170558
 30
0.0
  0
VERTEX
  5
1C1
100
AcDbEntity
  8
EBENE_1
 62
   250
100
AcDbVertex
100
AcDb2dVertex
 10
210.833643
 20
230.173547
 30
0.0
  0
VERTEX
  5
1C2
100
AcDbEntity
  8
EBENE_1
 62
   250
100
AcDbVertex
100
AcDb2dVertex
 10
210.833643
 20
232.167569
 30
0.0
  0
SEQEND
  5
1C3
100
AcDbEntity
  8
EBENE_1
 62
   250
  0
HATCH
  5
1BE
100
AcDbEntity
  8
EBENE_1
 62
   250
100
AcDbHatch
 10
0.0
 20
0.0
 30
0.0
210
0.0
220
0.0
230
1.0
  2
SOLID
 70
     1
 71
     0
 91
        1
 92
        3
 72
     0
 73
     1
 93
        3
 10
214.83477647569441
 20
231.17055799696178
 10
210.83364257812499
 20
230.17354736328122
 10
210.83364257812499
 20
232.16756863064234
 97
        0
 75
     0
 76
     1
 98
        1
 10
0.0
 20
0.0
  0
LINE
  5
1BD
100
AcDbEntity
  8
EBENE_1
 62
   250
100
AcDbLine
 10
174.334923
 20
231.170558
 30
0.0
 11
214.834776
 21
231.170558
 31
0.0
  0
LINE
  5
1BC
100
AcDbEntity
  8
EBENE_1
 62
   250
100
AcDbLine
 10
122.83488
 20
215.670557
 30
0.0
 11
122.83488
 21
231.170558
 31
0.0
  0
LINE
  5
1BB
100
AcDbEntity
  8
EBENE_1
 62
   250
100
AcDbLine
 10
214.834776
 20
215.670557
 30
0.0
 11
214.834776
 21
282.216021
 31
0.0
  0
MTEXT
  5
1BA
100
AcDbEntity
  8
EBENE_1
 62
   250
100
AcDbMText
 10
3.271807
 20
203.34544
 30
0.0
 40
3.674769
 41
0.0
 71
     1
 72
     2
  1
\fMyriad Roman|b0|i0; 23.0 
  7
STD
210
0.0
220
0.0
230
1.0
 11
1.000001
 21
0.0
 31
0.0
 73
     1
 44
1.0
  0
POLYLINE
  5
1B5
100
AcDbEntity
  8
EBENE_1
 62
   250
100
AcDb2dPolyline
 66
     1
 10
0.0
 20
0.0
 30
0.0
 70
     1
  0
VERTEX
  5
1B6
100
AcDbEntity
  8
EBENE_1
 62
   250
100
AcDbVertex
100
AcDb2dVertex
 10
21.834154
 20
200.670611
 30
0.0
  0
VERTEX
  5
1B7
100
AcDbEntity
  8
EBENE_1
 62
   250
100
AcDbVertex
100
AcDb2dVertex
 10
17.333137
 20
199.6736
 30
0.0
  0
VERTEX
  5
1B8
100
AcDbEntity
  8
EBENE_1
 62
   250
100
AcDbVertex
100
AcDb2dVertex
 10
17.333137
 20
201.667622
 30
0.0
  0
SEQEND
  5
1B9
100
AcDbEntity
  8
EBENE_1
 62
   250
  0
HATCH
  5
1B4
100
AcDbEntity
  8
EBENE_1
 62
   250
100
AcDbHatch
 10
0.0
 20
0.0
 30
0.0
210
0.0
220
0.0
230
1.0
  2
SOLID
 70
     1
 71
     0
 91
        1
 92
        3
 72
     0
 73
     1
 93
        3
 10
21.834153917100693
 20
200.67061089409719
 10
17.333136664496525
 20
199.67360026041663
 10
17.333136664496525
 20
201.66762152777775
 97
        0
 75
     0
 76
     1
 98
        1
 10
0.0
 20
0.0
  0
LINE
  5
1B3
100
AcDbEntity
  8
EBENE_1
 62
   250
100
AcDbLine
 10
16.771586
 20
200.670611
 30
0.0
 11
21.834154
 21
200.670611
 31
0.0
  0
POLYLINE
  5
1AE
100
AcDbEntity
  8
EBENE_1
 62
   250
100
AcDb2dPolyline
 66
     1
 10
0.0
 20
0.0
 30
0.0
 70
     1
  0
VERTEX
  5
1AF
100
AcDbEntity
  8
EBENE_1
 62
   250
100
AcDbVertex
100
AcDb2dVertex
 10
-4.040925
 20
200.670611
 30
0.0
  0
VERTEX
  5
1B0
100
AcDbEntity
  8
EBENE_1
 62
   250
100
AcDbVertex
100
AcDb2dVertex
 10
0.460437
 20
201.667622
 30
0.0
  0
VERTEX
  5
1B1
100
AcDbEntity
  8
EBENE_1
 62
   250
100
AcDbVertex
100
AcDb2dVertex
 10
0.460437
 20
199.6736
 30
0.0
  0
SEQEND
  5
1B2
100
AcDbEntity
  8
EBENE_1
 62
   250
  0
HATCH
  5
1AD
100
AcDbEntity
  8
EBENE_1
 62
   250
100
AcDbHatch
 10
0.0
 20
0.0
 30
0.0
210
0.0
220
0.0
230
1.0
  2
SOLID
 70
     1
 71
     0
 91
        1
 92
        3
 72
     0
 73
     1
 93
        3
 10
-4.0409247504340273
 20
200.67061089409719
 10
0.46043701171875
 20
201.66762152777775
 10
0.46043701171875
 20
199.67360026041663
 97
        0
 75
     0
 76
     1
 98
        1
 10
0.0
 20
0.0
  0
MTEXT
  5
1AC
100
AcDbEntity
  8
EBENE_1
 62
   250
100
AcDbMText
 10
3.214446
 20
204.345379
 30
0.0
 40
3.674769
 41
0.0
 71
     1
 72
     2
  1
\fMyriad Roman|b0|i0;
  7
STD
210
0.0
220
0.0
230
1.0
 11
1.000001
 21
0.0
 31
0.0
 73
     1
 44
1.0
  0
LINE
  5
1AB
100
AcDbEntity
  8
EBENE_1
 62
   250
100
AcDbLine
 10
21.834154
 20
189.170538
 30
0.0
 11
21.834154
 21
279.311289
 31
0.0
  0
LINE
  5
1AA
100
AcDbEntity
  8
EBENE_1
 62
   250
100
AcDbLine
 10
-4.040925
 20
143.670817
 30
0.0
 11
-4.040925
 21
200.670611
 31
0.0
  0
MTEXT
  5
1A9
100
AcDbEntity
  8
EBENE_1
 62
   250
100
AcDbMText
 10
217.381391
 20
161.345248
 30
0.0
 40
3.674769
 41
0.0
 71
     1
 72
     2
  1
\fMyriad Roman|b0|i0; 120.0 
  7
STD
210
0.0
220
0.0
230
1.0
 11
1.000001
 21
0.0
 31
0.0
 73
     1
 44
1.0
  0
POLYLINE
  5
1A4
100
AcDbEntity
  8
EBENE_1
 62
   250
100
AcDb2dPolyline
 66
     1
 10
0.0
 20
0.0
 30
0.0
 70
     1
  0
VERTEX
  5
1A5
100
AcDbEntity
  8
EBENE_1
 62
   250
100
AcDbVertex
100
AcDb2dVertex
 10
224.334972
 20
99.170519
 30
0.0
  0
VERTEX
  5
1A6
100
AcDbEntity
  8
EBENE_1
 62
   250
100
AcDbVertex
100
AcDb2dVertex
 10
223.337961
 20
103.171653
 30
0.0
  0
VERTEX
  5
1A7
100
AcDbEntity
  8
EBENE_1
 62
   250
100
AcDbVertex
100
AcDb2dVertex
 10
225.331982
 20
103.171653
 30
0.0
  0
SEQEND
  5
1A8
100
AcDbEntity
  8
EBENE_1
 62
   250
  0
HATCH
  5
1A3
100
AcDbEntity
  8
EBENE_1
 62
   250
100
AcDbHatch
 10
0.0
 20
0.0
 30
0.0
210
0.0
220
0.0
230
1.0
  2
SOLID
 70
     1
 71
     0
 91
        1
 92
        3
 72
     0
 73
     1
 93
        3
 10
224.33497178819442
 20
99.170518663194429
 10
223.33796115451386
 20
103.17165256076387
 10
225.33198242187498
 20
103.17165256076387
 97
        0
 75
     0
 76
     1
 98
        1
 10
0.0
 20
0.0
  0
LINE
  5
1A2
100
AcDbEntity
  8
EBENE_1
 62
   250
100
AcDbLine
 10
224.334972
 20
156.670713
 30
0.0
 11
224.334972
 21
99.170519
 31
0.0
  0
POLYLINE
  5
19D
100
AcDbEntity
  8
EBENE_1
 62
   250
100
AcDb2dPolyline
 66
     1
 10
0.0
 20
0.0
 30
0.0
 70
     1
  0
VERTEX
  5
19E
100
AcDbEntity
  8
EBENE_1
 62
   250
100
AcDbVertex
100
AcDb2dVertex
 10
224.334972
 20
219.170601
 30
0.0
  0
VERTEX
  5
19F
100
AcDbEntity
  8
EBENE_1
 62
   250
100
AcDbVertex
100
AcDb2dVertex
 10
225.331982
 20
215.16964
 30
0.0
  0
VERTEX
  5
1A0
100
AcDbEntity
  8
EBENE_1
 62
   250
100
AcDbVertex
100
AcDb2dVertex
 10
223.337961
 20
215.16964
 30
0.0
  0
SEQEND
  5
1A1
100
AcDbEntity
  8
EBENE_1
 62
   250
  0
HATCH
  5
19C
100
AcDbEntity
  8
EBENE_1
 62
   250
100
AcDbHatch
 10
0.0
 20
0.0
 30
0.0
210
0.0
220
0.0
230
1.0
  2
SOLID
 70
     1
 71
     0
 91
        1
 92
        3
 72
     0
 73
     1
 93
        3
 10
224.33497178819442
 20
219.17060139973955
 10
225.33198242187498
 20
215.16963975694443
 10
223.33796115451386
 20
215.16963975694443
 97
        0
 75
     0
 76
     1
 98
        1
 10
0.0
 20
0.0
  0
LINE
  5
19B
100
AcDbEntity
  8
EBENE_1
 62
   250
100
AcDbLine
 10
224.334972
 20
160.670468
 30
0.0
 11
224.334972
 21
219.170601
 31
0.0
  0
LINE
  5
19A
100
AcDbEntity
  8
EBENE_1
 62
   250
100
AcDbLine
 10
198.834375
 20
99.170519
 30
0.0
 11
224.334972
 21
99.170519
 31
0.0
  0
LINE
  5
199
100
AcDbEntity
  8
EBENE_1
 62
   250
100
AcDbLine
 10
198.834375
 20
219.170601
 30
0.0
 11
224.334972
 21
219.170601
 31
0.0
  0
POLYLINE
  5
194
100
AcDbEntity
  8
EBENE_1
 62
   250
100
AcDb2dPolyline
 66
     1
 10
0.0
 20
0.0
 30
0.0
 70
     1
  0
VERTEX
  5
195
100
AcDbEntity
  8
EBENE_1
 62
   250
100
AcDbVertex
100
AcDb2dVertex
 10
21.707891
 20
275.59248
 30
0.0
  0
VERTEX
  5
196
100
AcDbEntity
  8
EBENE_1
 62
   250
100
AcDbVertex
100
AcDb2dVertex
 10
26.209081
 20
276.589491
 30
0.0
  0
VERTEX
  5
197
100
AcDbEntity
  8
EBENE_1
 62
   250
100
AcDbVertex
100
AcDb2dVertex
 10
26.209081
 20
274.59547
 30
0.0
  0
SEQEND
  5
198
100
AcDbEntity
  8
EBENE_1
 62
   250
  0
HATCH
  5
193
100
AcDbEntity
  8
EBENE_1
 62
   250
100
AcDbHatch
 10
0.0
 20
0.0
 30
0.0
210
0.0
220
0.0
230
1.0
  2
SOLID
 70
     1
 71
     0
 91
        1
 92
        3
 72
     0
 73
     1
 93
        3
 10
21.707891167534719
 20
275.59248046874995
 10
26.209080674913192
 20
276.58949110243054
 10
26.209080674913192
 20
274.59546983506942
 97
        0
 75
     0
 76
     1
 98
        1
 10
0.0
 20
0.0
  0
LINE
  5
192
100
AcDbEntity
  8
EBENE_1
 62
   250
100
AcDbLine
 10
111.02647
 20
275.763702
 30
0.0
 11
21.730457
 21
275.763702
 31
0.0
  0
POLYLINE
  5
18D
100
AcDbEntity
  8
EBENE_1
 62
   250
100
AcDb2dPolyline
 66
     1
 10
0.0
 20
0.0
 30
0.0
 70
     1
  0
VERTEX
  5
18E
100
AcDbEntity
  8
EBENE_1
 62
   250
100
AcDbVertex
100
AcDb2dVertex
 10
214.466496
 20
275.834498
 30
0.0
  0
VERTEX
  5
18F
100
AcDbEntity
  8
EBENE_1
 62
   250
100
AcDbVertex
100
AcDb2dVertex
 10
210.465362
 20
274.837488
 30
0.0
  0
VERTEX
  5
190
100
AcDbEntity
  8
EBENE_1
 62
   250
100
AcDbVertex
100
AcDb2dVertex
 10
210.465362
 20
276.831509
 30
0.0
  0
SEQEND
  5
191
100
AcDbEntity
  8
EBENE_1
 62
   250
  0
HATCH
  5
18C
100
AcDbEntity
  8
EBENE_1
 62
   250
100
AcDbHatch
 10
0.0
 20
0.0
 30
0.0
210
0.0
220
0.0
230
1.0
  2
SOLID
 70
     1
 71
     0
 91
        1
 92
        3
 72
     0
 73
     1
 93
        3
 10
214.46649576822915
 20
275.8344984266493
 10
210.46536187065971
 20
274.83748779296872
 10
210.46536187065971
 20
276.83150906032984
 97
        0
 75
     0
 76
     1
 98
        1
 10
0.0
 20
0.0
  0
LINE
  5
18B
100
AcDbEntity
  8
EBENE_1
 62
   250
100
AcDbLine
 10
122.920662
 20
275.782822
 30
0.0
 11
214.650464
 21
275.782822
 31
0.0
  0
MTEXT
  5
18A
100
AcDbEntity
  8
EBENE_1
 62
   250
100
AcDbMText
 10
1.340487
 20
196.172579
 30
0.0
 40
3.674769
 41
0.0
 71
     1
 72
     2
  1
\fMyriad Roman|b0|i0; 3.0
  7
STD
210
0.0
220
0.0
230
1.0
 11
1.000001
 21
0.0
 31
0.0
 73
     1
 44
1.0
  0
POLYLINE
  5
185
100
AcDbEntity
  8
EBENE_1
 62
   250
100
AcDb2dPolyline
 66
     1
 10
0.0
 20
0.0
 30
0.0
 70
     1
  0
VERTEX
  5
186
100
AcDbEntity
  8
EBENE_1
 62
   250
100
AcDbVertex
100
AcDb2dVertex
 10
21.834154
 20
194.170577
 30
0.0
  0
VERTEX
  5
187
100
AcDbEntity
  8
EBENE_1
 62
   250
100
AcDbVertex
100
AcDb2dVertex
 10
26.335343
 20
195.167588
 30
0.0
  0
VERTEX
  5
188
100
AcDbEntity
  8
EBENE_1
 62
   250
100
AcDbVertex
100
AcDb2dVertex
 10
26.335343
 20
193.173566
 30
0.0
  0
SEQEND
  5
189
100
AcDbEntity
  8
EBENE_1
 62
   250
  0
HATCH
  5
184
100
AcDbEntity
  8
EBENE_1
 62
   250
100
AcDbHatch
 10
0.0
 20
0.0
 30
0.0
210
0.0
220
0.0
230
1.0
  2
SOLID
 70
     1
 71
     0
 91
        1
 92
        3
 72
     0
 73
     1
 93
        3
 10
21.834153917100693
 20
194.17057698567706
 10
26.335343424479163
 20
195.16758761935762
 10
26.335343424479163
 20
193.1735663519965
 97
        0
 75
     0
 76
     1
 98
        1
 10
0.0
 20
0.0
  0
LINE
  5
183
100
AcDbEntity
  8
EBENE_1
 62
   250
100
AcDbLine
 10
30.833949
 20
194.170577
 30
0.0
 11
21.834154
 21
194.170577
 31
0.0
  0
POLYLINE
  5
17E
100
AcDbEntity
  8
EBENE_1
 62
   250
100
AcDb2dPolyline
 66
     1
 10
0.0
 20
0.0
 30
0.0
 70
     1
  0
VERTEX
  5
17F
100
AcDbEntity
  8
EBENE_1
 62
   250
100
AcDbVertex
100
AcDb2dVertex
 10
19.021578
 20
194.170577
 30
0.0
  0
VERTEX
  5
180
100
AcDbEntity
  8
EBENE_1
 62
   250
100
AcDbVertex
100
AcDb2dVertex
 10
14.520561
 20
193.173566
 30
0.0
  0
VERTEX
  5
181
100
AcDbEntity
  8
EBENE_1
 62
   250
100
AcDbVertex
100
AcDb2dVertex
 10
14.520561
 20
195.167588
 30
0.0
  0
SEQEND
  5
182
100
AcDbEntity
  8
EBENE_1
 62
   250
  0
HATCH
  5
17D
100
AcDbEntity
  8
EBENE_1
 62
   250
100
AcDbHatch
 10
0.0
 20
0.0
 30
0.0
210
0.0
220
0.0
230
1.0
  2
SOLID
 70
     1
 71
     0
 91
        1
 92
        3
 72
     0
 73
     1
 93
        3
 10
19.021577962239583
 20
194.17057698567706
 10
14.520560709635415
 20
193.1735663519965
 10
14.520560709635415
 20
195.16758761935762
 97
        0
 75
     0
 76
     1
 98
        1
 10
0.0
 20
0.0
  0
LINE
  5
17C
100
AcDbEntity
  8
EBENE_1
 62
   250
100
AcDbLine
 10
10.021611
 20
194.170577
 30
0.0
 11
19.021578
 21
194.170577
 31
0.0
  0
LINE
  5
17B
100
AcDbEntity
  8
EBENE_1
 62
   250
100
AcDbLine
 10
21.834154
 20
88.670557
 30
0.0
 11
21.834154
 21
194.170577
 31
0.0
  0
LINE
  5
17A
100
AcDbEntity
  8
EBENE_1
 62
   250
100
AcDbLine
 10
19.021578
 20
109.170942
 30
0.0
 11
19.021578
 21
194.170577
 31
0.0
  0
MTEXT
  5
179
100
AcDbEntity
  8
EBENE_1
 62
   250
100
AcDbMText
 10
42.646837
 20
77.345379
 30
0.0
 40
3.674769
 41
0.0
 71
     1
 72
     2
  1
\fMyriad Roman|b0|i0; 11.0 
  7
STD
210
0.0
220
0.0
230
1.0
 11
1.000001
 21
0.0
 31
0.0
 73
     1
 44
1.0
  0
POLYLINE
  5
174
100
AcDbEntity
  8
EBENE_1
 62
   250
100
AcDb2dPolyline
 66
     1
 10
0.0
 20
0.0
 30
0.0
 70
     1
  0
VERTEX
  5
175
100
AcDbEntity
  8
EBENE_1
 62
   250
100
AcDbVertex
100
AcDb2dVertex
 10
33.083941
 20
74.670378
 30
0.0
  0
VERTEX
  5
176
100
AcDbEntity
  8
EBENE_1
 62
   250
100
AcDbVertex
100
AcDb2dVertex
 10
37.58513
 20
75.667388
 30
0.0
  0
VERTEX
  5
177
100
AcDbEntity
  8
EBENE_1
 62
   250
100
AcDbVertex
100
AcDb2dVertex
 10
37.58513
 20
73.673367
 30
0.0
  0
SEQEND
  5
178
100
AcDbEntity
  8
EBENE_1
 62
   250
  0
HATCH
  5
173
100
AcDbEntity
  8
EBENE_1
 62
   250
100
AcDbHatch
 10
0.0
 20
0.0
 30
0.0
210
0.0
220
0.0
230
1.0
  2
SOLID
 70
     1
 71
     0
 91
        1
 92
        3
 72
     0
 73
     1
 93
        3
 10
33.083940972222216
 20
74.67037760416666
 10
37.585130479600693
 20
75.66738823784722
 10
37.585130479600693
 20
73.6733669704861
 97
        0
 75
     0
 76
     1
 98
        1
 10
0.0
 20
0.0
  0
LINE
  5
172
100
AcDbEntity
  8
EBENE_1
 62
   250
100
AcDbLine
 10
42.646837
 20
74.670378
 30
0.0
 11
33.083941
 21
74.670378
 31
0.0
  0
POLYLINE
  5
16D
100
AcDbEntity
  8
EBENE_1
 62
   250
100
AcDb2dPolyline
 66
     1
 10
0.0
 20
0.0
 30
0.0
 70
     1
  0
VERTEX
  5
16E
100
AcDbEntity
  8
EBENE_1
 62
   250
100
AcDbVertex
100
AcDb2dVertex
 10
21.834154
 20
74.670378
 30
0.0
  0
VERTEX
  5
16F
100
AcDbEntity
  8
EBENE_1
 62
   250
100
AcDbVertex
100
AcDb2dVertex
 10
17.333137
 20
73.673367
 30
0.0
  0
VERTEX
  5
170
100
AcDbEntity
  8
EBENE_1
 62
   250
100
AcDbVertex
100
AcDb2dVertex
 10
17.333137
 20
75.667388
 30
0.0
  0
SEQEND
  5
171
100
AcDbEntity
  8
EBENE_1
 62
   250
  0
HATCH
  5
16C
100
AcDbEntity
  8
EBENE_1
 62
   250
100
AcDbHatch
 10
0.0
 20
0.0
 30
0.0
210
0.0
220
0.0
230
1.0
  2
SOLID
 70
     1
 71
     0
 91
        1
 92
        3
 72
     0
 73
     1
 93
        3
 10
21.834153917100693
 20
74.67037760416666
 10
17.333136664496525
 20
73.6733669704861
 10
17.333136664496525
 20
75.66738823784722
 97
        0
 75
     0
 76
     1
 98
        1
 10
0.0
 20
0.0
  0
LINE
  5
16B
100
AcDbEntity
  8
EBENE_1
 62
   250
100
AcDbLine
 10
12.834186
 20
74.670378
 30
0.0
 11
21.834154
 21
74.670378
 31
0.0
  0
LINE
  5
16A
100
AcDbEntity
  8
EBENE_1
 62
   250
100
AcDbLine
 10
33.083941
 20
88.670557
 30
0.0
 11
33.083941
 21
74.670378
 31
0.0
  0
LINE
  5
169
100
AcDbEntity
  8
EBENE_1
 62
   250
100
AcDbLine
 10
21.834154
 20
89.670323
 30
0.0
 11
21.834154
 21
74.670378
 31
0.0
  0
LINE
  5
168
100
AcDbEntity
  8
EBENE_1
 62
   250
100
AcDbLine
 10
127.873676
 20
178.240628
 30
0.0
 11
214.80067
 21
178.240628
 31
0.0
  0
LINE
  5
167
100
AcDbEntity
  8
EBENE_1
 62
   250
100
AcDbLine
 10
127.907783
 20
181.226492
 30
0.0
 11
214.800326
 21
181.226492
 31
0.0
  0
LINE
  5
166
100
AcDbEntity
  8
EBENE_1
 62
   250
100
AcDbLine
 10
127.93431
 20
168.069156
 30
0.0
 11
214.406207
 21
168.069156
 31
0.0
  0
LINE
  5
165
100
AcDbEntity
  8
EBENE_1
 62
   250
100
AcDbLine
 10
127.907783
 20
165.165801
 30
0.0
 11
214.642196
 21
165.165801
 31
0.0
  0
LINE
  5
164
100
AcDbEntity
  8
EBENE_1
 62
   250
100
AcDbLine
 10
127.430637
 20
139.181169
 30
0.0
 11
214.752439
 21
139.181169
 31
0.0
  0
LINE
  5
163
100
AcDbEntity
  8
EBENE_1
 62
   250
100
AcDbLine
 10
127.855417
 20
155.046867
 30
0.0
 11
214.848557
 21
155.046867
 31
0.0
  0
LINE
  5
162
100
AcDbEntity
  8
EBENE_1
 62
   250
100
AcDbLine
 10
127.907783
 20
152.167801
 30
0.0
 11
214.837188
 21
152.167801
 31
0.0
  0
LINE
  5
161
100
AcDbEntity
  8
EBENE_1
 62
   250
100
AcDbLine
 10
21.95077
 20
189.101463
 30
0.0
 11
-40.214772
 21
189.101463
 31
0.0
  0
LINE
  5
160
100
AcDbEntity
  8
EBENE_1
 62
   250
100
AcDbLine
 10
-2.53559
 20
144.562408
 30
0.0
 11
-13.341821
 21
144.562408
 31
0.0
  0
LINE
  5
15F
100
AcDbEntity
  8
EBENE_1
 62
   250
100
AcDbLine
 10
-2.53559
 20
144.562408
 30
0.0
 11
-13.341821
 21
144.562408
 31
0.0
  0
MTEXT
  5
15E
100
AcDbEntity
  8
EBENE_1
 62
   250
100
AcDbMText
 10
-33.744883
 20
142.567927
 30
0.0
 40
3.674769
 41
0.0
 71
     1
 72
     2
  1
\fMyriad Roman|b0|i0; 60j6
  7
STD
210
0.0
220
0.0
230
1.0
 11
1.000001
 21
0.0
 31
0.0
 73
     1
 44
1.0
  0
MTEXT
  5
15D
100
AcDbEntity
  8
EBENE_1
 62
   250
100
AcDbMText
 10
-46.741333
 20
142.859727
 30
0.0
 40
3.674769
 41
0.0
 71
     1
 72
     2
  1
\fMyriad Roman|b0|i0;100.0
  7
STD
210
0.0
220
0.0
230
1.0
 11
1.000001
 21
0.0
 31
0.0
 73
     1
 44
1.0
  0
LINE
  5
15C
100
AcDbEntity
  8
EBENE_1
 62
   250
100
AcDbLine
 10
-2.827734
 20
133.756177
 30
0.0
 11
-13.633965
 21
133.756177
 31
0.0
  0
LINE
  5
15B
100
AcDbEntity
  8
EBENE_1
 62
   250
100
AcDbLine
 10
-13.487893
 20
125.410433
 30
0.0
 11
-13.487893
 21
133.632498
 31
0.0
  0
POLYLINE
  5
156
100
AcDbEntity
  8
EBENE_1
 62
   250
100
AcDb2dPolyline
 66
     1
 10
0.0
 20
0.0
 30
0.0
 70
     1
  0
VERTEX
  5
157
100
AcDbEntity
  8
EBENE_1
 62
   250
100
AcDbVertex
100
AcDb2dVertex
 10
-28.382591
 20
109.116854
 30
0.0
  0
VERTEX
  5
158
100
AcDbEntity
  8
EBENE_1
 62
   250
100
AcDbVertex
100
AcDb2dVertex
 10
-29.504315
 20
113.117299
 30
0.0
  0
VERTEX
  5
159
100
AcDbEntity
  8
EBENE_1
 62
   250
100
AcDbVertex
100
AcDb2dVertex
 10
-27.261213
 20
113.117299
 30
0.0
  0
SEQEND
  5
15A
100
AcDbEntity
  8
EBENE_1
 62
   250
  0
HATCH
  5
155
100
AcDbEntity
  8
EBENE_1
 62
   250
100
AcDbHatch
 10
0.0
 20
0.0
 30
0.0
210
0.0
220
0.0
230
1.0
  2
SOLID
 70
     1
 71
     0
 91
        1
 92
        3
 72
     0
 73
     1
 93
        3
 10
-28.382591417100691
 20
109.11685384114583
 10
-29.504314507378471
 20
113.11729871961805
 10
-27.261212836371524
 20
113.11729871961805
 97
        0
 75
     0
 76
     1
 98
        1
 10
0.0
 20
0.0
  0
POLYLINE
  5
150
100
AcDbEntity
  8
EBENE_1
 62
   250
100
AcDb2dPolyline
 66
     1
 10
0.0
 20
0.0
 30
0.0
 70
     1
  0
VERTEX
  5
151
100
AcDbEntity
  8
EBENE_1
 62
   250
100
AcDbVertex
100
AcDb2dVertex
 10
-40.416482
 20
89.35303
 30
0.0
  0
VERTEX
  5
152
100
AcDbEntity
  8
EBENE_1
 62
   250
100
AcDbVertex
100
AcDb2dVertex
 10
-41.538205
 20
93.353475
 30
0.0
  0
VERTEX
  5
153
100
AcDbEntity
  8
EBENE_1
 62
   250
100
AcDbVertex
100
AcDb2dVertex
 10
-39.295104
 20
93.353475
 30
0.0
  0
SEQEND
  5
154
100
AcDbEntity
  8
EBENE_1
 62
   250
  0
HATCH
  5
14F
100
AcDbEntity
  8
EBENE_1
 62
   250
100
AcDbHatch
 10
0.0
 20
0.0
 30
0.0
210
0.0
220
0.0
230
1.0
  2
SOLID
 70
     1
 71
     0
 91
        1
 92
        3
 72
     0
 73
     1
 93
        3
 10
-40.416482204861104
 20
89.353030056423606
 10
-41.538205295138887
 20
93.353474934895829
 10
-39.29510362413194
 20
93.353474934895829
 97
        0
 75
     0
 76
     1
 98
        1
 10
0.0
 20
0.0
  0
LINE
  5
14E
100
AcDbEntity
  8
EBENE_1
 62
   250
100
AcDbLine
 10
22.315089
 20
89.249333
 30
0.0
 11
-40.621982
 21
89.249333
 31
0.0
  0
LINE
  5
14D
100
AcDbEntity
  8
EBENE_1
 62
   250
100
AcDbLine
 10
-40.503299
 20
89.046761
 30
0.0
 11
-40.503299
 21
135.435661
 31
0.0
  0
LINE
  5
14C
100
AcDbEntity
  8
EBENE_1
 62
   250
100
AcDbLine
 10
-40.282296
 20
145.407834
 30
0.0
 11
-40.282296
 21
187.941844
 31
0.0
  0
POLYLINE
  5
147
100
AcDbEntity
  8
EBENE_1
 62
   250
100
AcDb2dPolyline
 66
     1
 10
0.0
 20
0.0
 30
0.0
 70
     1
  0
VERTEX
  5
148
100
AcDbEntity
  8
EBENE_1
 62
   250
100
AcDbVertex
100
AcDb2dVertex
 10
-40.282123
 20
189.100602
 30
0.0
  0
VERTEX
  5
149
100
AcDbEntity
  8
EBENE_1
 62
   250
100
AcDbVertex
100
AcDb2dVertex
 10
-39.160745
 20
185.099468
 30
0.0
  0
VERTEX
  5
14A
100
AcDbEntity
  8
EBENE_1
 62
   250
100
AcDbVertex
100
AcDb2dVertex
 10
-41.403847
 20
185.099468
 30
0.0
  0
SEQEND
  5
14B
100
AcDbEntity
  8
EBENE_1
 62
   250
  0
HATCH
  5
146
100
AcDbEntity
  8
EBENE_1
 62
   250
100
AcDbHatch
 10
0.0
 20
0.0
 30
0.0
210
0.0
220
0.0
230
1.0
  2
SOLID
 70
     1
 71
     0
 91
        1
 92
        3
 72
     0
 73
     1
 93
        3
 10
-40.282123480902776
 20
189.10060221354166
 10
-39.160744900173604
 20
185.09946831597222
 10
-41.403846571180551
 20
185.09946831597222
 97
        0
 75
     0
 76
     1
 98
        1
 10
0.0
 20
0.0
  0
POLYLINE
  5
141
100
AcDbEntity
  8
EBENE_1
 62
   250
100
AcDb2dPolyline
 66
     1
 10
0.0
 20
0.0
 30
0.0
 70
     1
  0
VERTEX
  5
142
100
AcDbEntity
  8
EBENE_1
 62
   250
100
AcDbVertex
100
AcDb2dVertex
 10
-28.316618
 20
169.131451
 30
0.0
  0
VERTEX
  5
143
100
AcDbEntity
  8
EBENE_1
 62
   250
100
AcDbVertex
100
AcDb2dVertex
 10
-27.195239
 20
165.130317
 30
0.0
  0
VERTEX
  5
144
100
AcDbEntity
  8
EBENE_1
 62
   250
100
AcDbVertex
100
AcDb2dVertex
 10
-29.438341
 20
165.130317
 30
0.0
  0
SEQEND
  5
145
100
AcDbEntity
  8
EBENE_1
 62
   250
  0
HATCH
  5
140
100
AcDbEntity
  8
EBENE_1
 62
   250
100
AcDbHatch
 10
0.0
 20
0.0
 30
0.0
210
0.0
220
0.0
230
1.0
  2
SOLID
 70
     1
 71
     0
 91
        1
 92
        3
 72
     0
 73
     1
 93
        3
 10
-28.316617838541664
 20
169.13145073784722
 10
-27.195239257812499
 20
165.13031684027777
 10
-29.438340928819443
 20
165.13031684027777
 97
        0
 75
     0
 76
     1
 98
        1
 10
0.0
 20
0.0
  0
LINE
  5
13F
100
AcDbEntity
  8
EBENE_1
 62
   250
100
AcDbLine
 10
-28.290607
 20
168.129445
 30
0.0
 11
-28.290607
 21
145.619363
 31
0.0
  0
LINE
  5
13E
100
AcDbEntity
  8
EBENE_1
 62
   250
100
AcDbLine
 10
70.770874
 20
266.975952
 30
0.0
 11
21.733729
 21
266.975952
 31
0.0
  0
LINE
  5
13D
100
AcDbEntity
  8
EBENE_1
 62
   250
100
AcDbLine
 10
122.897236
 20
267.379373
 30
0.0
 11
82.790123
 21
267.379373
 31
0.0
  0
POLYLINE
  5
138
100
AcDbEntity
  8
EBENE_1
 62
   250
100
AcDb2dPolyline
 66
     1
 10
0.0
 20
0.0
 30
0.0
 70
     1
  0
VERTEX
  5
139
100
AcDbEntity
  8
EBENE_1
 62
   250
100
AcDbVertex
100
AcDb2dVertex
 10
122.970961
 20
267.215386
 30
0.0
  0
VERTEX
  5
13A
100
AcDbEntity
  8
EBENE_1
 62
   250
100
AcDbVertex
100
AcDb2dVertex
 10
118.969827
 20
266.218376
 30
0.0
  0
VERTEX
  5
13B
100
AcDbEntity
  8
EBENE_1
 62
   250
100
AcDbVertex
100
AcDb2dVertex
 10
118.969827
 20
268.212397
 30
0.0
  0
SEQEND
  5
13C
100
AcDbEntity
  8
EBENE_1
 62
   250
  0
HATCH
  5
137
100
AcDbEntity
  8
EBENE_1
 62
   250
100
AcDbHatch
 10
0.0
 20
0.0
 30
0.0
210
0.0
220
0.0
230
1.0
  2
SOLID
 70
     1
 71
     0
 91
        1
 92
        3
 72
     0
 73
     1
 93
        3
 10
122.97096082899304
 20
267.21538628472217
 10
118.9698269314236
 20
266.21837565104164
 10
118.9698269314236
 20
268.21239691840276
 97
        0
 75
     0
 76
     1
 98
        1
 10
0.0
 20
0.0
  0
POLYLINE
  5
132
100
AcDbEntity
  8
EBENE_1
 62
   250
100
AcDb2dPolyline
 66
     1
 10
0.0
 20
0.0
 30
0.0
 70
     1
  0
VERTEX
  5
133
100
AcDbEntity
  8
EBENE_1
 62
   250
100
AcDbVertex
100
AcDb2dVertex
 10
21.876184
 20
267.163021
 30
0.0
  0
VERTEX
  5
134
100
AcDbEntity
  8
EBENE_1
 62
   250
100
AcDbVertex
100
AcDb2dVertex
 10
26.377374
 20
268.160031
 30
0.0
  0
VERTEX
  5
135
100
AcDbEntity
  8
EBENE_1
 62
   250
100
AcDbVertex
100
AcDb2dVertex
 10
26.377374
 20
266.16601
 30
0.0
  0
SEQEND
  5
136
100
AcDbEntity
  8
EBENE_1
 62
   250
  0
HATCH
  5
131
100
AcDbEntity
  8
EBENE_1
 62
   250
100
AcDbHatch
 10
0.0
 20
0.0
 30
0.0
210
0.0
220
0.0
230
1.0
  2
SOLID
 70
     1
 71
     0
 91
        1
 92
        3
 72
     0
 73
     1
 93
        3
 10
21.876184082031248
 20
267.16302083333329
 10
26.377373589409721
 20
268.16003146701388
 10
26.377373589409721
 20
266.16601019965276
 97
        0
 75
     0
 76
     1
 98
        1
 10
0.0
 20
0.0
  0
MTEXT
  5
130
100
AcDbEntity
  8
EBENE_1
 62
   250
100
AcDbMText
 10
113.241667
 20
277.94416
 30
0.0
 40
3.674769
 41
0.0
 71
     1
 72
     2
  1
\fMyriad Roman|b0|i0;193 
  7
STD
210
0.0
220
0.0
230
1.0
 11
1.000001
 21
0.0
 31
0.0
 73
     1
 44
1.0
  0
MTEXT
  5
12F
100
AcDbEntity
  8
EBENE_1
 62
   250
100
AcDbMText
 10
72.885818
 20
269.43443
 30
0.0
 40
3.674769
 41
0.0
 71
     1
 72
     2
  1
\fMyriad Roman|b0|i0;101
  7
STD
210
0.0
220
0.0
230
1.0
 11
1.000001
 21
0.0
 31
0.0
 73
     1
 44
1.0
  0
MTEXT
  5
12E
100
AcDbEntity
  8
EBENE_1
 62
   250
100
AcDbMText
 10
46.213889
 20
194.174769
 30
0.0
 40
3.674769
 41
0.0
 71
     1
 72
     2
  1
\fMyriad Roman|b0|i0;
  7
STD
210
0.0
220
0.0
230
1.0
 11
1.000001
 21
0.0
 31
0.0
 73
     1
 44
1.0
  0
LINE
  5
12D
100
AcDbEntity
  8
EBENE_1
 62
   250
100
AcDbLine
 10
121.277007
 20
188.554727
 30
0.0
 11
121.277007
 21
180.554698
 31
0.0
  0
LINE
  5
12C
100
AcDbEntity
  8
EBENE_1
 62
   250
100
AcDbLine
 10
120.77678
 20
188.554727
 30
0.0
 11
120.77678
 21
180.554698
 31
0.0
  0
LINE
  5
12B
100
AcDbEntity
  8
EBENE_1
 62
   250
100
AcDbLine
 10
120.276896
 20
188.554727
 30
0.0
 11
120.276896
 21
180.554698
 31
0.0
  0
LINE
  5
12A
100
AcDbEntity
  8
EBENE_1
 62
   250
100
AcDbLine
 10
119.777013
 20
188.554727
 30
0.0
 11
119.777013
 21
180.554698
 31
0.0
  0
LINE
  5
129
100
AcDbEntity
  8
EBENE_1
 62
   250
100
AcDbLine
 10
119.276785
 20
188.554727
 30
0.0
 11
119.276785
 21
180.554698
 31
0.0
  0
LINE
  5
128
100
AcDbEntity
  8
EBENE_1
 62
   250
100
AcDbLine
 10
118.277018
 20
180.554698
 30
0.0
 11
122.777002
 21
180.554698
 31
0.0
  0
LINE
  5
127
100
AcDbEntity
  8
EBENE_1
 62
   250
100
AcDbLine
 10
118.277018
 20
188.554727
 30
0.0
 11
122.777002
 21
188.554727
 31
0.0
  0
LINE
  5
126
100
AcDbEntity
  8
EBENE_1
 62
   250
100
AcDbLine
 10
118.277018
 20
181.054926
 30
0.0
 11
118.277018
 21
188.054671
 31
0.0
  0
POLYLINE
  5
121
100
AcDbEntity
  8
EBENE_1
 62
   250
100
AcDb2dPolyline
 66
     1
 10
0.0
 20
0.0
 30
0.0
  0
VERTEX
  5
122
100
AcDbEntity
  8
EBENE_1
 62
   250
100
AcDbVertex
100
AcDb2dVertex
 10
117.276907
 20
181.054926
 30
0.0
  0
VERTEX
  5
123
100
AcDbEntity
  8
EBENE_1
 62
   250
100
AcDbVertex
100
AcDb2dVertex
 10
118.277018
 20
181.054926
 30
0.0
  0
VERTEX
  5
124
100
AcDbEntity
  8
EBENE_1
 62
   250
100
AcDbVertex
100
AcDb2dVertex
 10
118.277018
 20
180.554698
 30
0.0
  0
SEQEND
  5
125
100
AcDbEntity
  8
EBENE_1
 62
   250
  0
POLYLINE
  5
11B
100
AcDbEntity
  8
EBENE_1
 62
   250
100
AcDb2dPolyline
 66
     1
 10
0.0
 20
0.0
 30
0.0
  0
VERTEX
  5
11C
100
AcDbEntity
  8
EBENE_1
 62
   250
100
AcDbVertex
100
AcDb2dVertex
 10
117.276907
 20
188.554727
 30
0.0
  0
VERTEX
  5
11D
100
AcDbEntity
  8
EBENE_1
 62
   250
100
AcDbVertex
100
AcDb2dVertex
 10
117.276907
 20
188.054671
 30
0.0
  0
VERTEX
  5
11E
100
AcDbEntity
  8
EBENE_1
 62
   250
100
AcDbVertex
100
AcDb2dVertex
 10
118.277018
 20
188.054671
 30
0.0
  0
VERTEX
  5
11F
100
AcDbEntity
  8
EBENE_1
 62
   250
100
AcDbVertex
100
AcDb2dVertex
 10
118.277018
 20
188.554727
 30
0.0
  0
SEQEND
  5
120
100
AcDbEntity
  8
EBENE_1
 62
   250
  0
POLYLINE
  5
112
100
AcDbEntity
  8
EBENE_1
 62
   250
100
AcDb2dPolyline
 66
     1
 10
0.0
 20
0.0
 30
0.0
  0
VERTEX
  5
113
100
AcDbEntity
  8
EBENE_1
 62
   250
100
AcDbVertex
100
AcDb2dVertex
 10
115.776912
 20
188.054671
 30
0.0
  0
VERTEX
  5
114
100
AcDbEntity
  8
EBENE_1
 62
   250
100
AcDbVertex
100
AcDb2dVertex
 10
116.777024
 20
188.554727
 30
0.0
  0
VERTEX
  5
115
100
AcDbEntity
  8
EBENE_1
 62
   250
100
AcDbVertex
100
AcDb2dVertex
 10
117.276907
 20
188.554727
 30
0.0
  0
VERTEX
  5
116
100
AcDbEntity
  8
EBENE_1
 62
   250
100
AcDbVertex
100
AcDb2dVertex
 10
117.276907
 20
180.554698
 30
0.0
  0
VERTEX
  5
117
100
AcDbEntity
  8
EBENE_1
 62
   250
100
AcDbVertex
100
AcDb2dVertex
 10
116.777024
 20
180.554698
 30
0.0
  0
VERTEX
  5
118
100
AcDbEntity
  8
EBENE_1
 62
   250
100
AcDbVertex
100
AcDb2dVertex
 10
115.776912
 20
181.054926
 30
0.0
  0
VERTEX
  5
119
100
AcDbEntity
  8
EBENE_1
 62
   250
100
AcDbVertex
100
AcDb2dVertex
 10
115.776912
 20
188.054671
 30
0.0
  0
SEQEND
  5
11A
100
AcDbEntity
  8
EBENE_1
 62
   250
  0
LINE
  5
111
100
AcDbEntity
  8
EBENE_1
 62
   250
100
AcDbLine
 10
122.940299
 20
213.201629
 30
0.0
 11
112.765554
 21
213.172346
 31
0.0
  0
LINE
  5
110
100
AcDbEntity
  8
EBENE_1
 62
   250
100
AcDbLine
 10
121.277007
 20
211.554701
 30
0.0
 11
121.277007
 21
197.554694
 31
0.0
  0
LINE
  5
10F
100
AcDbEntity
  8
EBENE_1
 62
   250
100
AcDbLine
 10
120.276896
 20
197.554694
 30
0.0
 11
120.276896
 21
211.554701
 31
0.0
  0
LINE
  5
10E
100
AcDbEntity
  8
EBENE_1
 62
   250
100
AcDbLine
 10
119.276785
 20
211.554701
 30
0.0
 11
119.276785
 21
197.554694
 31
0.0
  0
LINE
  5
10D
100
AcDbEntity
  8
EBENE_1
 62
   250
100
AcDbLine
 10
118.277018
 20
211.554701
 30
0.0
 11
118.277018
 21
197.554694
 31
0.0
  0
POLYLINE
  5
F8
100
AcDbEntity
  8
EBENE_1
 62
   250
100
AcDb2dPolyline
 66
     1
 10
0.0
 20
0.0
 30
0.0
 70
     1
  0
VERTEX
  5
F9
100
AcDbEntity
  8
EBENE_1
 62
   250
100
AcDbVertex
100
AcDb2dVertex
 10
121.277007
 20
197.554694
 30
0.0
  0
VERTEX
  5
FA
100
AcDbEntity
  8
EBENE_1
 62
   250
100
AcDbVertex
100
AcDb2dVertex
 10
122.777002
 20
197.554694
 30
0.0
  0
VERTEX
  5
FB
100
AcDbEntity
  8
EBENE_1
 62
   250
100
AcDbVertex
100
AcDb2dVertex
 10
122.777002
 20
211.554701
 30
0.0
  0
VERTEX
  5
FC
100
AcDbEntity
  8
EBENE_1
 62
   250
100
AcDbVertex
100
AcDb2dVertex
 10
121.277007
 20
211.554701
 30
0.0
  0
VERTEX
  5
FD
100
AcDbEntity
  8
EBENE_1
 62
   250
100
AcDbVertex
100
AcDb2dVertex
 10
120.77678
 20
212.054757
 30
0.0
  0
VERTEX
  5
FE
100
AcDbEntity
  8
EBENE_1
 62
   250
100
AcDbVertex
100
AcDb2dVertex
 10
120.276896
 20
211.554701
 30
0.0
  0
VERTEX
  5
FF
100
AcDbEntity
  8
EBENE_1
 62
   250
100
AcDbVertex
100
AcDb2dVertex
 10
119.777013
 20
212.054757
 30
0.0
  0
VERTEX
  5
100
100
AcDbEntity
  8
EBENE_1
 62
   250
100
AcDbVertex
100
AcDb2dVertex
 10
119.276785
 20
211.554701
 30
0.0
  0
VERTEX
  5
101
100
AcDbEntity
  8
EBENE_1
 62
   250
100
AcDbVertex
100
AcDb2dVertex
 10
118.776902
 20
212.054757
 30
0.0
  0
VERTEX
  5
102
100
AcDbEntity
  8
EBENE_1
 62
   250
100
AcDbVertex
100
AcDb2dVertex
 10
118.277018
 20
211.554701
 30
0.0
  0
VERTEX
  5
103
100
AcDbEntity
  8
EBENE_1
 62
   250
100
AcDbVertex
100
AcDb2dVertex
 10
112.776923
 20
211.554701
 30
0.0
  0
VERTEX
  5
104
100
AcDbEntity
  8
EBENE_1
 62
   250
100
AcDbVertex
100
AcDb2dVertex
 10
112.776923
 20
197.554694
 30
0.0
  0
VERTEX
  5
105
100
AcDbEntity
  8
EBENE_1
 62
   250
100
AcDbVertex
100
AcDb2dVertex
 10
118.277018
 20
197.554694
 30
0.0
  0
VERTEX
  5
106
100
AcDbEntity
  8
EBENE_1
 62
   250
100
AcDbVertex
100
AcDb2dVertex
 10
118.776902
 20
197.054811
 30
0.0
  0
VERTEX
  5
107
100
AcDbEntity
  8
EBENE_1
 62
   250
100
AcDbVertex
100
AcDb2dVertex
 10
119.276785
 20
197.554694
 30
0.0
  0
VERTEX
  5
108
100
AcDbEntity
  8
EBENE_1
 62
   250
100
AcDbVertex
100
AcDb2dVertex
 10
119.777013
 20
197.054811
 30
0.0
  0
VERTEX
  5
109
100
AcDbEntity
  8
EBENE_1
 62
   250
100
AcDbVertex
100
AcDb2dVertex
 10
120.276896
 20
197.554694
 30
0.0
  0
VERTEX
  5
10A
100
AcDbEntity
  8
EBENE_1
 62
   250
100
AcDbVertex
100
AcDb2dVertex
 10
120.77678
 20
197.054811
 30
0.0
  0
VERTEX
  5
10B
100
AcDbEntity
  8
EBENE_1
 62
   250
100
AcDbVertex
100
AcDb2dVertex
 10
121.277007
 20
197.554694
 30
0.0
  0
SEQEND
  5
10C
100
AcDbEntity
  8
EBENE_1
 62
   250
  0
POLYLINE
  5
F2
100
AcDbEntity
  8
EBENE_1
 62
   250
100
AcDb2dPolyline
 66
     1
 10
0.0
 20
0.0
 30
0.0
 70
     1
  0
VERTEX
  5
F3
100
AcDbEntity
  8
EBENE_1
 62
   250
100
AcDbVertex
100
AcDb2dVertex
 10
111.776812
 20
200.554683
 30
0.0
  0
VERTEX
  5
F4
100
AcDbEntity
  8
EBENE_1
 62
   250
100
AcDbVertex
100
AcDb2dVertex
 10
112.776923
 20
200.554683
 30
0.0
  0
VERTEX
  5
F5
100
AcDbEntity
  8
EBENE_1
 62
   250
100
AcDbVertex
100
AcDb2dVertex
 10
112.776923
 20
208.554712
 30
0.0
  0
VERTEX
  5
F6
100
AcDbEntity
  8
EBENE_1
 62
   250
100
AcDbVertex
100
AcDb2dVertex
 10
111.776812
 20
208.554712
 30
0.0
  0
SEQEND
  5
F7
100
AcDbEntity
  8
EBENE_1
 62
   250
  0
LINE
  5
F1
100
AcDbEntity
  8
EBENE_1
 62
   250
100
AcDbLine
 10
122.96097
 20
219.29118
 30
0.0
 11
122.96097
 21
269.179607
 31
0.0
  0
LINE
  5
F0
100
AcDbEntity
  8
EBENE_1
 62
   250
100
AcDbLine
 10
57.765294
 20
208.18936
 30
0.0
 11
64.265156
 21
208.18936
 31
0.0
  0
LINE
  5
EF
100
AcDbEntity
  8
EBENE_1
 62
   250
100
AcDbLine
 10
57.765294
 20
190.189425
 30
0.0
 11
64.265156
 21
190.189425
 31
0.0
  0
LINE
  5
EE
100
AcDbEntity
  8
EBENE_1
 62
   250
100
AcDbLine
 10
56.765183
 20
189.189313
 30
0.0
 11
56.765183
 21
187.689319
 31
0.0
  0
LINE
  5
ED
100
AcDbEntity
  8
EBENE_1
 62
   250
100
AcDbLine
 10
54.765305
 20
192.189303
 30
0.0
 11
54.765305
 21
189.189313
 31
0.0
  0
LINE
  5
EC
100
AcDbEntity
  8
EBENE_1
 62
   250
100
AcDbLine
 10
52.765427
 20
195.68952
 30
0.0
 11
52.765427
 21
190.689308
 31
0.0
  0
LINE
  5
EB
100
AcDbEntity
  8
EBENE_1
 62
   250
100
AcDbLine
 10
50.765205
 20
199.189392
 30
0.0
 11
50.765205
 21
190.689308
 31
0.0
  0
LINE
  5
EA
100
AcDbEntity
  8
EBENE_1
 62
   250
100
AcDbLine
 10
52.765427
 20
225.689411
 30
0.0
 11
52.765427
 21
204.689487
 31
0.0
  0
LINE
  5
E9
100
AcDbEntity
  8
EBENE_1
 62
   250
100
AcDbLine
 10
54.765305
 20
225.689411
 30
0.0
 11
54.765305
 21
207.189248
 31
0.0
  0
LINE
  5
E8
100
AcDbEntity
  8
EBENE_1
 62
   250
100
AcDbLine
 10
56.765183
 20
225.689411
 30
0.0
 11
56.765183
 21
210.189237
 31
0.0
  0
POLYLINE
  5
E3
100
AcDbEntity
  8
EBENE_1
 62
   250
100
AcDb2dPolyline
 66
     1
 10
0.0
 20
0.0
 30
0.0
  0
VERTEX
  5
E4
100
AcDbEntity
  8
EBENE_1
 62
   250
100
AcDbVertex
100
AcDb2dVertex
 10
57.765294
 20
211.189349
 30
0.0
  0
VERTEX
  5
E5
100
AcDbEntity
  8
EBENE_1
 62
   250
100
AcDbVertex
100
AcDb2dVertex
 10
49.765438
 20
200.689387
 30
0.0
  0
VERTEX
  5
E6
100
AcDbEntity
  8
EBENE_1
 62
   250
100
AcDbVertex
100
AcDb2dVertex
 10
57.765294
 20
187.689319
 30
0.0
  0
SEQEND
  5
E7
100
AcDbEntity
  8
EBENE_1
 62
   250
  0
POLYLINE
  5
CB
100
AcDbEntity
  8
EBENE_1
 62
   250
100
AcDb2dPolyline
 66
     1
 10
0.0
 20
0.0
 30
0.0
  0
VERTEX
  5
CC
100
AcDbEntity
  8
EBENE_1
 62
   250
100
AcDbVertex
100
AcDb2dVertex
 10
32.76527
 20
246.689335
 30
0.0
  0
VERTEX
  5
CD
100
AcDbEntity
  8
EBENE_1
 62
   250
100
AcDbVertex
100
AcDb2dVertex
 10
32.76527
 20
239.689246
 30
0.0
  0
VERTEX
  5
CE
100
AcDbEntity
  8
EBENE_1
 62
   250
100
AcDbVertex
100
AcDb2dVertex
 10
33.265153
 20
239.189362
 30
0.0
  0
VERTEX
  5
CF
100
AcDbEntity
  8
EBENE_1
 62
   250
100
AcDbVertex
100
AcDb2dVertex
 10
32.76527
 20
238.689134
 30
0.0
  0
VERTEX
  5
D0
100
AcDbEntity
  8
EBENE_1
 62
   250
100
AcDbVertex
100
AcDb2dVertex
 10
33.265153
 20
238.189251
 30
0.0
  0
VERTEX
  5
D1
100
AcDbEntity
  8
EBENE_1
 62
   250
100
AcDbVertex
100
AcDb2dVertex
 10
32.76527
 20
237.689368
 30
0.0
  0
VERTEX
  5
D2
100
AcDbEntity
  8
EBENE_1
 62
   250
100
AcDbVertex
100
AcDb2dVertex
 10
33.265153
 20
237.18914
 30
0.0
  0
VERTEX
  5
D3
100
AcDbEntity
  8
EBENE_1
 62
   250
100
AcDbVertex
100
AcDb2dVertex
 10
32.76527
 20
236.689256
 30
0.0
  0
VERTEX
  5
D4
100
AcDbEntity
  8
EBENE_1
 62
   250
100
AcDbVertex
100
AcDb2dVertex
 10
32.76527
 20
186.689208
 30
0.0
  0
VERTEX
  5
D5
100
AcDbEntity
  8
EBENE_1
 62
   250
100
AcDbVertex
100
AcDb2dVertex
 10
57.765294
 20
186.689208
 30
0.0
  0
VERTEX
  5
D6
100
AcDbEntity
  8
EBENE_1
 62
   250
100
AcDbVertex
100
AcDb2dVertex
 10
57.765294
 20
227.689289
 30
0.0
  0
VERTEX
  5
D7
100
AcDbEntity
  8
EBENE_1
 62
   250
100
AcDbVertex
100
AcDb2dVertex
 10
56.765183
 20
228.6894
 30
0.0
  0
VERTEX
  5
D8
100
AcDbEntity
  8
EBENE_1
 62
   250
100
AcDbVertex
100
AcDb2dVertex
 10
56.765183
 20
232.189273
 30
0.0
  0
VERTEX
  5
D9
100
AcDbEntity
  8
EBENE_1
 62
   250
100
AcDbVertex
100
AcDb2dVertex
 10
57.765294
 20
233.189384
 30
0.0
  0
VERTEX
  5
DA
100
AcDbEntity
  8
EBENE_1
 62
   250
100
AcDbVertex
100
AcDb2dVertex
 10
57.765294
 20
236.689256
 30
0.0
  0
VERTEX
  5
DB
100
AcDbEntity
  8
EBENE_1
 62
   250
100
AcDbVertex
100
AcDb2dVertex
 10
57.265411
 20
237.18914
 30
0.0
  0
VERTEX
  5
DC
100
AcDbEntity
  8
EBENE_1
 62
   250
100
AcDbVertex
100
AcDb2dVertex
 10
57.765294
 20
237.689368
 30
0.0
  0
VERTEX
  5
DD
100
AcDbEntity
  8
EBENE_1
 62
   250
100
AcDbVertex
100
AcDb2dVertex
 10
57.265411
 20
238.189251
 30
0.0
  0
VERTEX
  5
DE
100
AcDbEntity
  8
EBENE_1
 62
   250
100
AcDbVertex
100
AcDb2dVertex
 10
57.765294
 20
238.689134
 30
0.0
  0
VERTEX
  5
DF
100
AcDbEntity
  8
EBENE_1
 62
   250
100
AcDbVertex
100
AcDb2dVertex
 10
57.265411
 20
239.189362
 30
0.0
  0
VERTEX
  5
E0
100
AcDbEntity
  8
EBENE_1
 62
   250
100
AcDbVertex
100
AcDb2dVertex
 10
57.765294
 20
239.689246
 30
0.0
  0
VERTEX
  5
E1
100
AcDbEntity
  8
EBENE_1
 62
   250
100
AcDbVertex
100
AcDb2dVertex
 10
57.765294
 20
246.689335
 30
0.0
  0
SEQEND
  5
E2
100
AcDbEntity
  8
EBENE_1
 62
   250
  0
LINE
  5
CA
100
AcDbEntity
  8
EBENE_1
 62
   250
100
AcDbLine
 10
55.265188
 20
236.689256
 30
0.0
 11
55.265188
 21
226.689178
 31
0.0
  0
LINE
  5
C9
100
AcDbEntity
  8
EBENE_1
 62
   250
100
AcDbLine
 10
53.765194
 20
236.689256
 30
0.0
 11
53.765194
 21
226.689178
 31
0.0
  0
LINE
  5
C8
100
AcDbEntity
  8
EBENE_1
 62
   250
100
AcDbLine
 10
52.265199
 20
236.689256
 30
0.0
 11
52.265199
 21
226.689178
 31
0.0
  0
LINE
  5
C7
100
AcDbEntity
  8
EBENE_1
 62
   250
100
AcDbLine
 10
50.765205
 20
236.689256
 30
0.0
 11
50.765205
 21
226.689178
 31
0.0
  0
LINE
  5
C6
100
AcDbEntity
  8
EBENE_1
 62
   250
100
AcDbLine
 10
49.26521
 20
236.689256
 30
0.0
 11
49.26521
 21
226.689178
 31
0.0
  0
LINE
  5
C5
100
AcDbEntity
  8
EBENE_1
 62
   250
100
AcDbLine
 10
47.765215
 20
236.689256
 30
0.0
 11
47.765215
 21
226.689178
 31
0.0
  0
LINE
  5
C4
100
AcDbEntity
  8
EBENE_1
 62
   250
100
AcDbLine
 10
46.265221
 20
236.689256
 30
0.0
 11
46.265221
 21
226.689178
 31
0.0
  0
LINE
  5
C3
100
AcDbEntity
  8
EBENE_1
 62
   250
100
AcDbLine
 10
44.765226
 20
236.689256
 30
0.0
 11
44.765226
 21
226.689178
 31
0.0
  0
LINE
  5
C2
100
AcDbEntity
  8
EBENE_1
 62
   250
100
AcDbLine
 10
43.265232
 20
236.689256
 30
0.0
 11
43.265232
 21
226.689178
 31
0.0
  0
LINE
  5
C1
100
AcDbEntity
  8
EBENE_1
 62
   250
100
AcDbLine
 10
41.765237
 20
236.689256
 30
0.0
 11
41.765237
 21
226.689178
 31
0.0
  0
LINE
  5
C0
100
AcDbEntity
  8
EBENE_1
 62
   250
100
AcDbLine
 10
40.265243
 20
236.689256
 30
0.0
 11
40.265243
 21
226.689178
 31
0.0
  0
LINE
  5
BF
100
AcDbEntity
  8
EBENE_1
 62
   250
100
AcDbLine
 10
38.765248
 20
236.689256
 30
0.0
 11
38.765248
 21
226.689178
 31
0.0
  0
LINE
  5
BE
100
AcDbEntity
  8
EBENE_1
 62
   250
100
AcDbLine
 10
37.265253
 20
236.689256
 30
0.0
 11
37.265253
 21
226.689178
 31
0.0
  0
LINE
  5
BD
100
AcDbEntity
  8
EBENE_1
 62
   250
100
AcDbLine
 10
35.765259
 20
236.689256
 30
0.0
 11
35.765259
 21
226.689178
 31
0.0
  0
LINE
  5
BC
100
AcDbEntity
  8
EBENE_1
 62
   250
100
AcDbLine
 10
34.265264
 20
236.689256
 30
0.0
 11
34.265264
 21
226.689178
 31
0.0
  0
LINE
  5
BB
100
AcDbEntity
  8
EBENE_1
 62
   250
100
AcDbLine
 10
32.76527
 20
225.689411
 30
0.0
 11
57.765294
 21
225.689411
 31
0.0
  0
POLYLINE
  5
B6
100
AcDbEntity
  8
EBENE_1
 62
   250
100
AcDb2dPolyline
 66
     1
 10
0.0
 20
0.0
 30
0.0
  0
VERTEX
  5
B7
100
AcDbEntity
  8
EBENE_1
 62
   250
100
AcDbVertex
100
AcDb2dVertex
 10
32.76527
 20
225.689411
 30
0.0
  0
VERTEX
  5
B8
100
AcDbEntity
  8
EBENE_1
 62
   250
100
AcDbVertex
100
AcDb2dVertex
 10
32.76527
 20
186.689208
 30
0.0
  0
VERTEX
  5
B9
100
AcDbEntity
  8
EBENE_1
 62
   250
100
AcDbVertex
100
AcDb2dVertex
 10
78.765218
 20
186.689208
 30
0.0
  0
SEQEND
  5
BA
100
AcDbEntity
  8
EBENE_1
 62
   250
  0
POLYLINE
  5
B1
100
AcDbEntity
  8
EBENE_1
 62
   250
100
AcDb2dPolyline
 66
     1
 10
0.0
 20
0.0
 30
0.0
  0
VERTEX
  5
B2
100
AcDbEntity
  8
EBENE_1
 62
   250
100
AcDbVertex
100
AcDb2dVertex
 10
78.765218
 20
211.689232
 30
0.0
  0
VERTEX
  5
B3
100
AcDbEntity
  8
EBENE_1
 62
   250
100
AcDbVertex
100
AcDb2dVertex
 10
57.765294
 20
211.689232
 30
0.0
  0
VERTEX
  5
B4
100
AcDbEntity
  8
EBENE_1
 62
   250
100
AcDbVertex
100
AcDb2dVertex
 10
57.765294
 20
225.689411
 30
0.0
  0
SEQEND
  5
B5
100
AcDbEntity
  8
EBENE_1
 62
   250
  0
LINE
  5
B0
100
AcDbEntity
  8
EBENE_1
 62
   250
100
AcDbLine
 10
81.765896
 20
210.189237
 30
0.0
 11
93.765853
 21
210.189237
 31
0.0
  0
LINE
  5
AF
100
AcDbEntity
  8
EBENE_1
 62
   250
100
AcDbLine
 10
81.765896
 20
210.689465
 30
0.0
 11
93.765853
 21
210.689465
 31
0.0
  0
LINE
  5
AE
100
AcDbEntity
  8
EBENE_1
 62
   250
100
AcDbLine
 10
81.765896
 20
208.689243
 30
0.0
 11
93.765853
 21
208.689243
 31
0.0
  0
LINE
  5
AD
100
AcDbEntity
  8
EBENE_1
 62
   250
100
AcDbLine
 10
81.765896
 20
209.189471
 30
0.0
 11
93.765853
 21
209.189471
 31
0.0
  0
LINE
  5
AC
100
AcDbEntity
  8
EBENE_1
 62
   250
100
AcDbLine
 10
81.765896
 20
207.189248
 30
0.0
 11
93.765853
 21
207.189248
 31
0.0
  0
LINE
  5
AB
100
AcDbEntity
  8
EBENE_1
 62
   250
100
AcDbLine
 10
81.765896
 20
207.689476
 30
0.0
 11
93.765853
 21
207.689476
 31
0.0
  0
LINE
  5
AA
100
AcDbEntity
  8
EBENE_1
 62
   250
100
AcDbLine
 10
81.765896
 20
205.689254
 30
0.0
 11
93.765853
 21
205.689254
 31
0.0
  0
LINE
  5
A9
100
AcDbEntity
  8
EBENE_1
 62
   250
100
AcDbLine
 10
81.765896
 20
206.189482
 30
0.0
 11
93.765853
 21
206.189482
 31
0.0
  0
LINE
  5
A8
100
AcDbEntity
  8
EBENE_1
 62
   250
100
AcDbLine
 10
81.765896
 20
204.189259
 30
0.0
 11
93.765853
 21
204.189259
 31
0.0
  0
LINE
  5
A7
100
AcDbEntity
  8
EBENE_1
 62
   250
100
AcDbLine
 10
81.765896
 20
204.689487
 30
0.0
 11
93.765853
 21
204.689487
 31
0.0
  0
LINE
  5
A6
100
AcDbEntity
  8
EBENE_1
 62
   250
100
AcDbLine
 10
81.765896
 20
202.689265
 30
0.0
 11
93.765853
 21
202.689265
 31
0.0
  0
LINE
  5
A5
100
AcDbEntity
  8
EBENE_1
 62
   250
100
AcDbLine
 10
81.765896
 20
203.189492
 30
0.0
 11
93.765853
 21
203.189492
 31
0.0
  0
LINE
  5
A4
100
AcDbEntity
  8
EBENE_1
 62
   250
100
AcDbLine
 10
81.765896
 20
201.18927
 30
0.0
 11
93.765853
 21
201.18927
 31
0.0
  0
LINE
  5
A3
100
AcDbEntity
  8
EBENE_1
 62
   250
100
AcDbLine
 10
81.765896
 20
201.689498
 30
0.0
 11
93.765853
 21
201.689498
 31
0.0
  0
LINE
  5
A2
100
AcDbEntity
  8
EBENE_1
 62
   250
100
AcDbLine
 10
81.765896
 20
199.689275
 30
0.0
 11
93.765853
 21
199.689275
 31
0.0
  0
LINE
  5
A1
100
AcDbEntity
  8
EBENE_1
 62
   250
100
AcDbLine
 10
81.765896
 20
200.189503
 30
0.0
 11
93.765853
 21
200.189503
 31
0.0
  0
LINE
  5
A0
100
AcDbEntity
  8
EBENE_1
 62
   250
100
AcDbLine
 10
81.765896
 20
198.189281
 30
0.0
 11
93.765853
 21
198.189281
 31
0.0
  0
LINE
  5
9F
100
AcDbEntity
  8
EBENE_1
 62
   250
100
AcDbLine
 10
81.765896
 20
198.689509
 30
0.0
 11
93.765853
 21
198.689509
 31
0.0
  0
LINE
  5
9E
100
AcDbEntity
  8
EBENE_1
 62
   250
100
AcDbLine
 10
81.765896
 20
196.689286
 30
0.0
 11
93.765853
 21
196.689286
 31
0.0
  0
LINE
  5
9D
100
AcDbEntity
  8
EBENE_1
 62
   250
100
AcDbLine
 10
81.765896
 20
197.189514
 30
0.0
 11
93.765853
 21
197.189514
 31
0.0
  0
LINE
  5
9C
100
AcDbEntity
  8
EBENE_1
 62
   250
100
AcDbLine
 10
81.765896
 20
195.189292
 30
0.0
 11
93.765853
 21
195.189292
 31
0.0
  0
LINE
  5
9B
100
AcDbEntity
  8
EBENE_1
 62
   250
100
AcDbLine
 10
81.765896
 20
195.68952
 30
0.0
 11
93.765853
 21
195.68952
 31
0.0
  0
LINE
  5
9A
100
AcDbEntity
  8
EBENE_1
 62
   250
100
AcDbLine
 10
81.765896
 20
193.689297
 30
0.0
 11
93.765853
 21
193.689297
 31
0.0
  0
LINE
  5
99
100
AcDbEntity
  8
EBENE_1
 62
   250
100
AcDbLine
 10
81.765896
 20
194.189525
 30
0.0
 11
93.765853
 21
194.189525
 31
0.0
  0
LINE
  5
98
100
AcDbEntity
  8
EBENE_1
 62
   250
100
AcDbLine
 10
81.765896
 20
192.189303
 30
0.0
 11
93.765853
 21
192.189303
 31
0.0
  0
LINE
  5
97
100
AcDbEntity
  8
EBENE_1
 62
   250
100
AcDbLine
 10
81.765896
 20
192.68953
 30
0.0
 11
93.765853
 21
192.68953
 31
0.0
  0
LINE
  5
96
100
AcDbEntity
  8
EBENE_1
 62
   250
100
AcDbLine
 10
81.765896
 20
190.689308
 30
0.0
 11
93.765853
 21
190.689308
 31
0.0
  0
LINE
  5
95
100
AcDbEntity
  8
EBENE_1
 62
   250
100
AcDbLine
 10
81.765896
 20
191.189191
 30
0.0
 11
93.765853
 21
191.189191
 31
0.0
  0
LINE
  5
94
100
AcDbEntity
  8
EBENE_1
 62
   250
100
AcDbLine
 10
81.765896
 20
189.189313
 30
0.0
 11
93.765853
 21
189.189313
 31
0.0
  0
LINE
  5
93
100
AcDbEntity
  8
EBENE_1
 62
   250
100
AcDbLine
 10
81.765896
 20
189.689197
 30
0.0
 11
93.765853
 21
189.689197
 31
0.0
  0
LINE
  5
92
100
AcDbEntity
  8
EBENE_1
 62
   250
100
AcDbLine
 10
81.765896
 20
187.689319
 30
0.0
 11
93.765853
 21
187.689319
 31
0.0
  0
LINE
  5
91
100
AcDbEntity
  8
EBENE_1
 62
   250
100
AcDbLine
 10
81.765896
 20
188.189202
 30
0.0
 11
93.765853
 21
188.189202
 31
0.0
  0
LINE
  5
90
100
AcDbEntity
  8
EBENE_1
 62
   250
100
AcDbLine
 10
94.76562
 20
186.689208
 30
0.0
 11
112.765554
 21
186.689208
 31
0.0
  0
LINE
  5
8F
100
AcDbEntity
  8
EBENE_1
 62
   250
100
AcDbLine
 10
94.76562
 20
187.689319
 30
0.0
 11
112.765554
 21
187.689319
 31
0.0
  0
LINE
  5
8E
100
AcDbEntity
  8
EBENE_1
 62
   250
100
AcDbLine
 10
94.76562
 20
189.689197
 30
0.0
 11
112.765554
 21
189.689197
 31
0.0
  0
LINE
  5
8D
100
AcDbEntity
  8
EBENE_1
 62
   250
100
AcDbLine
 10
94.76562
 20
190.689308
 30
0.0
 11
112.765554
 21
190.689308
 31
0.0
  0
LINE
  5
8C
100
AcDbEntity
  8
EBENE_1
 62
   250
100
AcDbLine
 10
94.76562
 20
192.68953
 30
0.0
 11
112.765554
 21
192.68953
 31
0.0
  0
LINE
  5
8B
100
AcDbEntity
  8
EBENE_1
 62
   250
100
AcDbLine
 10
94.76562
 20
193.689297
 30
0.0
 11
112.765554
 21
193.689297
 31
0.0
  0
LINE
  5
8A
100
AcDbEntity
  8
EBENE_1
 62
   250
100
AcDbLine
 10
94.76562
 20
195.68952
 30
0.0
 11
112.765554
 21
195.68952
 31
0.0
  0
LINE
  5
89
100
AcDbEntity
  8
EBENE_1
 62
   250
100
AcDbLine
 10
94.76562
 20
196.689286
 30
0.0
 11
112.765554
 21
196.689286
 31
0.0
  0
LINE
  5
88
100
AcDbEntity
  8
EBENE_1
 62
   250
100
AcDbLine
 10
94.76562
 20
198.689509
 30
0.0
 11
112.765554
 21
198.689509
 31
0.0
  0
LINE
  5
87
100
AcDbEntity
  8
EBENE_1
 62
   250
100
AcDbLine
 10
94.76562
 20
199.689275
 30
0.0
 11
112.765554
 21
199.689275
 31
0.0
  0
LINE
  5
86
100
AcDbEntity
  8
EBENE_1
 62
   250
100
AcDbLine
 10
94.76562
 20
201.689498
 30
0.0
 11
111.74684
 21
201.689498
 31
0.0
  0
LINE
  5
85
100
AcDbEntity
  8
EBENE_1
 62
   250
100
AcDbLine
 10
94.76562
 20
202.689265
 30
0.0
 11
111.781635
 21
202.689265
 31
0.0
  0
LINE
  5
84
100
AcDbEntity
  8
EBENE_1
 62
   250
100
AcDbLine
 10
94.76562
 20
204.689487
 30
0.0
 11
111.816431
 21
204.689487
 31
0.0
  0
LINE
  5
83
100
AcDbEntity
  8
EBENE_1
 62
   250
100
AcDbLine
 10
94.76562
 20
205.689254
 30
0.0
 11
111.718934
 21
205.689254
 31
0.0
  0
LINE
  5
82
100
AcDbEntity
  8
EBENE_1
 62
   250
100
AcDbLine
 10
94.76562
 20
207.689476
 30
0.0
 11
111.74684
 21
207.689476
 31
0.0
  0
LINE
  5
81
100
AcDbEntity
  8
EBENE_1
 62
   250
100
AcDbLine
 10
94.76562
 20
208.689243
 30
0.0
 11
112.765554
 21
208.689243
 31
0.0
  0
LINE
  5
80
100
AcDbEntity
  8
EBENE_1
 62
   250
100
AcDbLine
 10
94.76562
 20
210.689465
 30
0.0
 11
112.765554
 21
210.689465
 31
0.0
  0
LINE
  5
7F
100
AcDbEntity
  8
EBENE_1
 62
   250
100
AcDbLine
 10
94.76562
 20
211.689232
 30
0.0
 11
112.765554
 21
211.689232
 31
0.0
  0
LINE
  5
7E
100
AcDbEntity
  8
EBENE_1
 62
   250
100
AcDbLine
 10
81.765896
 20
212.18946
 30
0.0
 11
81.765896
 21
186.189324
 31
0.0
  0
POLYLINE
  5
78
100
AcDbEntity
  8
EBENE_1
 62
   250
100
AcDb2dPolyline
 66
     1
 10
0.0
 20
0.0
 30
0.0
  0
VERTEX
  5
79
100
AcDbEntity
  8
EBENE_1
 62
   250
100
AcDbVertex
100
AcDb2dVertex
 10
78.765218
 20
187.689319
 30
0.0
  0
VERTEX
  5
7A
100
AcDbEntity
  8
EBENE_1
 62
   250
100
AcDbVertex
100
AcDb2dVertex
 10
80.265902
 20
187.689319
 30
0.0
  0
VERTEX
  5
7B
100
AcDbEntity
  8
EBENE_1
 62
   250
100
AcDbVertex
100
AcDb2dVertex
 10
81.765896
 20
186.189324
 30
0.0
  0
VERTEX
  5
7C
100
AcDbEntity
  8
EBENE_1
 62
   250
100
AcDbVertex
100
AcDb2dVertex
 10
82.765663
 20
186.189324
 30
0.0
  0
SEQEND
  5
7D
100
AcDbEntity
  8
EBENE_1
 62
   250
  0
LINE
  5
77
100
AcDbEntity
  8
EBENE_1
 62
   250
100
AcDbLine
 10
80.265902
 20
187.689319
 30
0.0
 11
80.265902
 21
210.689465
 31
0.0
  0
POLYLINE
  5
6D
100
AcDbEntity
  8
EBENE_1
 62
   250
100
AcDb2dPolyline
 66
     1
 10
0.0
 20
0.0
 30
0.0
  0
VERTEX
  5
6E
100
AcDbEntity
  8
EBENE_1
 62
   250
100
AcDbVertex
100
AcDb2dVertex
 10
82.765663
 20
186.189324
 30
0.0
  0
VERTEX
  5
6F
100
AcDbEntity
  8
EBENE_1
 62
   250
100
AcDbVertex
100
AcDb2dVertex
 10
93.765853
 20
186.189324
 30
0.0
  0
VERTEX
  5
70
100
AcDbEntity
  8
EBENE_1
 62
   250
100
AcDbVertex
100
AcDb2dVertex
 10
94.76562
 20
185.189213
 30
0.0
  0
VERTEX
  5
71
100
AcDbEntity
  8
EBENE_1
 62
   250
100
AcDbVertex
100
AcDb2dVertex
 10
112.765554
 20
185.189213
 30
0.0
  0
VERTEX
  5
72
100
AcDbEntity
  8
EBENE_1
 62
   250
100
AcDbVertex
100
AcDb2dVertex
 10
112.765554
 20
213.189227
 30
0.0
  0
VERTEX
  5
73
100
AcDbEntity
  8
EBENE_1
 62
   250
100
AcDbVertex
100
AcDb2dVertex
 10
94.76562
 20
213.189227
 30
0.0
  0
VERTEX
  5
74
100
AcDbEntity
  8
EBENE_1
 62
   250
100
AcDbVertex
100
AcDb2dVertex
 10
93.765853
 20
212.18946
 30
0.0
  0
VERTEX
  5
75
100
AcDbEntity
  8
EBENE_1
 62
   250
100
AcDbVertex
100
AcDb2dVertex
 10
81.765896
 20
212.18946
 30
0.0
  0
SEQEND
  5
76
100
AcDbEntity
  8
EBENE_1
 62
   250
  0
POLYLINE
  5
67
100
AcDbEntity
  8
EBENE_1
 62
   250
100
AcDb2dPolyline
 66
     1
 10
0.0
 20
0.0
 30
0.0
  0
VERTEX
  5
68
100
AcDbEntity
  8
EBENE_1
 62
   250
100
AcDbVertex
100
AcDb2dVertex
 10
78.765218
 20
210.689465
 30
0.0
  0
VERTEX
  5
69
100
AcDbEntity
  8
EBENE_1
 62
   250
100
AcDbVertex
100
AcDb2dVertex
 10
80.265902
 20
210.689465
 30
0.0
  0
VERTEX
  5
6A
100
AcDbEntity
  8
EBENE_1
 62
   250
100
AcDbVertex
100
AcDb2dVertex
 10
81.765896
 20
212.18946
 30
0.0
  0
VERTEX
  5
6B
100
AcDbEntity
  8
EBENE_1
 62
   250
100
AcDbVertex
100
AcDb2dVertex
 10
82.765663
 20
212.18946
 30
0.0
  0
SEQEND
  5
6C
100
AcDbEntity
  8
EBENE_1
 62
   250
  0
LINE
  5
66
100
AcDbEntity
  8
EBENE_1
 62
   250
100
AcDbLine
 10
78.765218
 20
211.689232
 30
0.0
 11
78.765218
 21
186.689208
 31
0.0
  0
LINE
  5
65
100
AcDbEntity
  8
EBENE_1
 62
   250
100
AcDbLine
 10
67.265145
 20
211.689232
 30
0.0
 11
67.265145
 21
186.689208
 31
0.0
  0
LINE
  5
64
100
AcDbEntity
  8
EBENE_1
 62
   250
100
AcDbLine
 10
93.765853
 20
212.18946
 30
0.0
 11
93.765853
 21
186.189324
 31
0.0
  0
LINE
  5
63
100
AcDbEntity
  8
EBENE_1
 62
   250
100
AcDbLine
 10
64.265156
 20
211.689232
 30
0.0
 11
64.265156
 21
186.689208
 31
0.0
  0
LINE
  5
62
100
AcDbEntity
  8
EBENE_1
 62
   250
100
AcDbLine
 10
50.765205
 20
225.689411
 30
0.0
 11
50.765205
 21
202.189381
 31
0.0
  0
LINE
  5
61
100
AcDbEntity
  8
EBENE_1
 62
   250
100
AcDbLine
 10
34.765148
 20
225.689411
 30
0.0
 11
34.765148
 21
188.189202
 31
0.0
  0
LINE
  5
60
100
AcDbEntity
  8
EBENE_1
 62
   250
100
AcDbLine
 10
36.76537
 20
225.689411
 30
0.0
 11
36.76537
 21
189.689197
 31
0.0
  0
LINE
  5
5F
100
AcDbEntity
  8
EBENE_1
 62
   250
100
AcDbLine
 10
38.765248
 20
225.689411
 30
0.0
 11
38.765248
 21
190.689308
 31
0.0
  0
LINE
  5
5E
100
AcDbEntity
  8
EBENE_1
 62
   250
100
AcDbLine
 10
40.76547
 20
225.689411
 30
0.0
 11
40.76547
 21
190.689308
 31
0.0
  0
LINE
  5
5D
100
AcDbEntity
  8
EBENE_1
 62
   250
100
AcDbLine
 10
44.765226
 20
225.689411
 30
0.0
 11
44.765226
 21
190.689308
 31
0.0
  0
LINE
  5
5C
100
AcDbEntity
  8
EBENE_1
 62
   250
100
AcDbLine
 10
46.765449
 20
225.689411
 30
0.0
 11
46.765449
 21
190.689308
 31
0.0
  0
LINE
  5
5B
100
AcDbEntity
  8
EBENE_1
 62
   250
100
AcDbLine
 10
48.765327
 20
225.689411
 30
0.0
 11
48.765327
 21
190.689308
 31
0.0
  0
LINE
  5
5A
100
AcDbEntity
  8
EBENE_1
 62
   250
100
AcDbLine
 10
42.765348
 20
225.689411
 30
0.0
 11
42.765348
 21
190.689308
 31
0.0
  0
POLYLINE
  5
54
100
AcDbEntity
  8
EBENE_1
 62
   250
100
AcDb2dPolyline
 66
     1
 10
0.0
 20
0.0
 30
0.0
  0
VERTEX
  5
55
100
AcDbEntity
  8
EBENE_1
 62
   250
100
AcDbVertex
100
AcDb2dVertex
 10
32.76527
 20
186.689208
 30
0.0
  0
VERTEX
  5
56
100
AcDbEntity
  8
EBENE_1
 62
   250
100
AcDbVertex
100
AcDb2dVertex
 10
37.765137
 20
190.689308
 30
0.0
  0
VERTEX
  5
57
100
AcDbEntity
  8
EBENE_1
 62
   250
100
AcDbVertex
100
AcDb2dVertex
 10
52.765427
 20
190.689308
 30
0.0
  0
VERTEX
  5
58
100
AcDbEntity
  8
EBENE_1
 62
   250
100
AcDbVertex
100
AcDb2dVertex
 10
57.765294
 20
186.689208
 30
0.0
  0
SEQEND
  5
59
100
AcDbEntity
  8
EBENE_1
 62
   250
  0
LINE
  5
53
100
AcDbEntity
  8
EBENE_1
 62
   250
100
AcDbLine
 10
32.76527
 20
226.689178
 30
0.0
 11
57.765294
 21
226.689178
 31
0.0
  0
LINE
  5
52
100
AcDbEntity
  8
EBENE_1
 62
   250
100
AcDbLine
 10
32.76527
 20
238.689134
 30
0.0
 11
57.765294
 21
238.689134
 31
0.0
  0
LINE
  5
51
100
AcDbEntity
  8
EBENE_1
 62
   250
100
AcDbLine
 10
32.76527
 20
236.689256
 30
0.0
 11
57.765294
 21
236.689256
 31
0.0
  0
LINE
  5
50
100
AcDbEntity
  8
EBENE_1
 62
   250
100
AcDbLine
 10
32.76527
 20
237.689368
 30
0.0
 11
57.765294
 21
237.689368
 31
0.0
  0
SPLINE
  5
4F
100
AcDbEntity
  8
EBENE_1
 62
   250
100
AcDbSpline
210
0.0
220
0.0
230
1.0
 70
     8
 71
     3
 72
     8
 73
     4
 74
     0
 42
0.00000001
 43
0.00000001
 40
0.0
 40
0.0
 40
0.0
 40
0.0
 40
1.0
 40
1.0
 40
1.0
 40
1.0
 10
34.765492078993056
 20
248.6892130533854
 30
0.0
 10
33.66099446614583
 20
248.68886854383678
 30
0.0
 10
32.765614149305556
 20
247.79348822699652
 30
0.0
 10
32.765269639756944
 20
246.68899061414928
 30
0.0
  0
LINE
  5
4E
100
AcDbEntity
  8
EBENE_1
 62
   250
100
AcDbLine
 10
55.765416
 20
248.689213
 30
0.0
 11
34.765148
 21
248.689213
 31
0.0
  0
SPLINE
  5
4D
100
AcDbEntity
  8
EBENE_1
 62
   250
100
AcDbSpline
210
0.0
220
0.0
230
1.0
 70
     8
 71
     3
 72
     8
 73
     4
 74
     0
 42
0.00000001
 43
0.00000001
 40
0.0
 40
0.0
 40
0.0
 40
0.0
 40
1.0
 40
1.0
 40
1.0
 40
1.0
 10
57.765294053819439
 20
246.68899061414928
 30
0.0
 10
57.764949544270827
 20
247.79348822699652
 30
0.0
 10
56.869569227430553
 20
248.68886854383678
 30
0.0
 10
55.765071614583327
 20
248.6892130533854
 30
0.0
  0
LINE
  5
4C
100
AcDbEntity
  8
EBENE_1
 62
   250
100
AcDbLine
 10
32.76527
 20
239.689246
 30
0.0
 11
57.765294
 21
239.689246
 31
0.0
  0
LINE
  5
4B
100
AcDbEntity
  8
EBENE_1
 62
   250
100
AcDbLine
 10
57.765294
 20
210.189237
 30
0.0
 11
62.265278
 21
210.189237
 31
0.0
  0
LINE
  5
4A
100
AcDbEntity
  8
EBENE_1
 62
   250
100
AcDbLine
 10
57.765294
 20
188.189202
 30
0.0
 11
62.265278
 21
188.189202
 31
0.0
  0
POLYLINE
  5
44
100
AcDbEntity
  8
EBENE_1
 62
   250
100
AcDb2dPolyline
 66
     1
 10
0.0
 20
0.0
 30
0.0
 70
     1
  0
VERTEX
  5
45
100
AcDbEntity
  8
EBENE_1
 62
   250
100
AcDbVertex
100
AcDb2dVertex
 10
62.265278
 20
186.689208
 30
0.0
  0
VERTEX
  5
46
100
AcDbEntity
  8
EBENE_1
 62
   250
100
AcDbVertex
100
AcDb2dVertex
 10
64.265156
 20
186.689208
 30
0.0
  0
VERTEX
  5
47
100
AcDbEntity
  8
EBENE_1
 62
   250
100
AcDbVertex
100
AcDb2dVertex
 10
64.265156
 20
189.689197
 30
0.0
  0
VERTEX
  5
48
100
AcDbEntity
  8
EBENE_1
 62
   250
100
AcDbVertex
100
AcDb2dVertex
 10
62.265278
 20
189.689197
 30
0.0
  0
SEQEND
  5
49
100
AcDbEntity
  8
EBENE_1
 62
   250
  0
LINE
  5
43
100
AcDbEntity
  8
EBENE_1
 62
   250
100
AcDbLine
 10
65.76515
 20
211.689232
 30
0.0
 11
65.76515
 21
186.689208
 31
0.0
  0
POLYLINE
  5
3D
100
AcDbEntity
  8
EBENE_1
 62
   250
100
AcDb2dPolyline
 66
     1
 10
0.0
 20
0.0
 30
0.0
 70
     1
  0
VERTEX
  5
3E
100
AcDbEntity
  8
EBENE_1
 62
   250
100
AcDbVertex
100
AcDb2dVertex
 10
62.265278
 20
208.689243
 30
0.0
  0
VERTEX
  5
3F
100
AcDbEntity
  8
EBENE_1
 62
   250
100
AcDbVertex
100
AcDb2dVertex
 10
64.265156
 20
208.689243
 30
0.0
  0
VERTEX
  5
40
100
AcDbEntity
  8
EBENE_1
 62
   250
100
AcDbVertex
100
AcDb2dVertex
 10
64.265156
 20
211.689232
 30
0.0
  0
VERTEX
  5
41
100
AcDbEntity
  8
EBENE_1
 62
   250
100
AcDbVertex
100
AcDb2dVertex
 10
62.265278
 20
211.689232
 30
0.0
  0
SEQEND
  5
42
100
AcDbEntity
  8
EBENE_1
 62
   250
  0
LINE
  5
3C
100
AcDbEntity
  8
EBENE_1
 62
   250
100
AcDbLine
 10
94.76562
 20
213.189227
 30
0.0
 11
94.76562
 21
185.189213
 31
0.0
  0
LINE
  5
3B
100
AcDbEntity
  8
EBENE_1
 62
   250
100
AcDbLine
 10
113.298166
 20
197.514903
 30
0.0
 11
113.298166
 21
185.453624
 31
0.0
  0
LINE
  5
3A
100
AcDbEntity
  8
EBENE_1
 62
   250
100
AcDbLine
 10
115.718001
 20
185.284814
 30
0.0
 11
112.75832
 21
185.276546
 31
0.0
  0
LINE
  5
39
100
AcDbEntity
  8
EBENE_1
 62
   250
100
AcDbLine
 10
113.215828
 20
213.037126
 30
0.0
 11
113.215828
 21
211.750555
 31
0.0
  0
LINE
  5
38
100
AcDbEntity
  8
EBENE_1
 62
   250
100
AcDbLine
 10
32.695334
 20
245.408276
 30
0.0
 11
32.695334
 21
258.689981
 31
0.0
  0
POLYLINE
  5
33
100
AcDbEntity
  8
EBENE_1
 62
   250
100
AcDb2dPolyline
 66
     1
 10
0.0
 20
0.0
 30
0.0
 70
     1
  0
VERTEX
  5
34
100
AcDbEntity
  8
EBENE_1
 62
   250
100
AcDbVertex
100
AcDb2dVertex
 10
33.017106
 20
257.626824
 30
0.0
  0
VERTEX
  5
35
100
AcDbEntity
  8
EBENE_1
 62
   250
100
AcDbVertex
100
AcDb2dVertex
 10
37.017896
 20
258.623835
 30
0.0
  0
VERTEX
  5
36
100
AcDbEntity
  8
EBENE_1
 62
   250
100
AcDbVertex
100
AcDb2dVertex
 10
37.017896
 20
256.629814
 30
0.0
  0
SEQEND
  5
37
100
AcDbEntity
  8
EBENE_1
 62
   250
  0
HATCH
  5
32
100
AcDbEntity
  8
EBENE_1
 62
   250
100
AcDbHatch
 10
0.0
 20
0.0
 30
0.0
210
0.0
220
0.0
230
1.0
  2
SOLID
 70
     1
 71
     0
 91
        1
 92
        3
 72
     0
 73
     1
 93
        3
 10
33.017106119791663
 20
257.62682427300342
 10
37.017895507812497
 20
258.62383490668401
 10
37.017895507812497
 20
256.62981363932289
 97
        0
 75
     0
 76
     1
 98
        1
 10
0.0
 20
0.0
  0
POLYLINE
  5
2D
100
AcDbEntity
  8
EBENE_1
 62
   250
100
AcDb2dPolyline
 66
     1
 10
0.0
 20
0.0
 30
0.0
 70
     1
  0
VERTEX
  5
2E
100
AcDbEntity
  8
EBENE_1
 62
   250
100
AcDbVertex
100
AcDb2dVertex
 10
122.677439
 20
257.931371
 30
0.0
  0
VERTEX
  5
2F
100
AcDbEntity
  8
EBENE_1
 62
   250
100
AcDbVertex
100
AcDb2dVertex
 10
118.676305
 20
256.93436
 30
0.0
  0
VERTEX
  5
30
100
AcDbEntity
  8
EBENE_1
 62
   250
100
AcDbVertex
100
AcDb2dVertex
 10
118.676305
 20
258.928381
 30
0.0
  0
SEQEND
  5
31
100
AcDbEntity
  8
EBENE_1
 62
   250
  0
HATCH
  5
2C
100
AcDbEntity
  8
EBENE_1
 62
   250
100
AcDbHatch
 10
0.0
 20
0.0
 30
0.0
210
0.0
220
0.0
230
1.0
  2
SOLID
 70
     1
 71
     0
 91
        1
 92
        3
 72
     0
 73
     1
 93
        3
 10
122.67743869357638
 20
257.9313707139757
 10
118.67630479600693
 20
256.93436008029511
 10
118.67630479600693
 20
258.92838134765623
 97
        0
 75
     0
 76
     1
 98
        1
 10
0.0
 20
0.0
  0
LINE
  5
2B
100
AcDbEntity
  8
EBENE_1
 62
   250
100
AcDbLine
 10
69.536496
 20
257.696587
 30
0.0
 11
34.652493
 21
257.696587
 31
0.0
  0
MTEXT
  5
2A
100
AcDbEntity
  8
EBENE_1
 62
   250
100
AcDbMText
 10
72.155458
 20
259.877907
 30
0.0
 40
3.674769
 41
0.0
 71
     1
 72
     2
  1
\fMyriad Roman|b0|i0;90 
  7
STD
210
0.0
220
0.0
230
1.0
 11
1.000001
 21
0.0
 31
0.0
 73
     1
 44
1.0
  0
LINE
  5
29
100
AcDbEntity
  8
EBENE_1
 62
   250
100
AcDbLine
 10
121.789638
 20
257.808725
 30
0.0
 11
79.337104
 21
257.808725
 31
0.0
  0
ENDSEC
  0
SECTION
  2
OBJECTS
  0
DICTIONARY
  5
19
100
AcDbDictionary
280
     0
281
     1
  3
ACAD_GROUP
350
1A
  3
ACAD_MLINESTYLE
350
1B
  3
ACAD_LAYOUT
350
1E
  3
ACAD_PLOTSETTINGS
350
22
  3
ACAD_PLOTSTYLENAME
350
1F
  3
ACAD_WIPEOUT_VARS
350
23
  0
DICTIONARY
  5
1A
102
{ACAD_REACTORS
330
19
102
}
100
AcDbDictionary
280
     0
281
     1
  0
DICTIONARY
  5
1B
102
{ACAD_REACTORS
330
19
102
}
100
AcDbDictionary
280
     0
281
     1
  3
Standard
350
1C
  0
MLINESTYLE
  5
1C
102
{ACAD_REACTORS
330
1B
102
}
100
AcDbMlineStyle
  2
Standard
 70
     0
  3

 62
     0
 51
90.0
 52
90.0
 71
     2
 49
0.5
 62
   256
  6
BYLAYER
 49
-0.5
 62
   256
  6
BYLAYER
  0
ACDBDICTIONARYWDFLT
  5
1F
102
{ACAD_REACTORS
330
19
102
}
100
AcDbDictionary
281
     1
  3
Normal
350
1D
100
AcDbDictionaryWithDefault
340
1D
  0
ACDBPLACEHOLDER
  5
1D
102
{ACAD_REACTORS
330
1F
102
}
  0
LAYOUT
  5
20
102
{ACAD_REACTORS
330
1E
102
}
100
AcDbPlotSettings
  1

  2

  4

  6

 40
0.0
 41
0.0
 42
0.0
 43
0.0
 44
0.0
 45
0.0
 46
0.0
 47
0.0
 48
0.0
 49
0.0
140
0.0
141
0.0
142
1.0
143
1.0
 70
  1024
 72
     0
 73
     0
 74
     0
  7

 75
     0
147
1.0
148
0.0
149
0.0
100
AcDbLayout
  1
Model
 70
     0
 71
     0
 10
0.0
 20
0.0
 11
0.0
 21
0.0
 12
0.0
 22
0.0
 32
0.0
 14
0.0
 24
0.0
 34
0.0
 15
0.0
 25
0.0
 35
0.0
146
0.0
 13
0.0
 23
0.0
 33
0.0
 16
0.0
 26
0.0
 36
0.0
 17
0.0
 27
0.0
 37
0.0
 76
     0
330
A
331
0
345
0
346
0
  0
LAYOUT
  5
21
102
{ACAD_REACTORS
330
1E
102
}
100
AcDbPlotSettings
  1

  2

  4

  6

 40
0.0
 41
0.0
 42
0.0
 43
0.0
 44
0.0
 45
0.0
 46
0.0
 47
0.0
 48
0.0
 49
0.0
140
0.0
141
0.0
142
1.0
143
1.0
 70
     0
 72
     0
 73
     0
 74
     0
  7

 75
     0
147
1.0
148
0.0
149
0.0
100
AcDbLayout
  1
Layout1
 70
     0
 71
     0
 10
0.0
 20
0.0
 11
0.0
 21
0.0
 12
0.0
 22
0.0
 32
0.0
 14
0.0
 24
0.0
 34
0.0
 15
0.0
 25
0.0
 35
0.0
146
0.0
 13
0.0
 23
0.0
 33
0.0
 16
0.0
 26
0.0
 36
0.0
 17
0.0
 27
0.0
 37
0.0
 76
     0
330
B
331
0
345
0
346
0
  0
DICTIONARY
  5
1E
102
{ACAD_REACTORS
330
19
102
}
100
AcDbDictionary
280
     0
281
     1
  3
Layout1
350
21
  3
Model
350
20
  0
DICTIONARY
  5
22
102
{ACAD_REACTORS
330
19
102
}
100
AcDbDictionary
280
     0
281
     1
  0
WIPEOUTVARIABLES
  5
23
100
AcDbWipeoutVariables
 70
     1
  0
ENDSEC
  0
EOF
