  0
SECTION
  2
HEADER
  9
$ACADVER
  1
AC1015
  9
$ACADMAINTVER
 70
     6
  9
$DWGCODEPAGE
  3
ANSI_932
  9
$INSBASE
 10
0.0
 20
0.0
 30
0.0
  9
$EXTMIN
 10
-86.993829
 20
74.905333
 30
1.000000E+20
  9
$EXTMAX
 10
268.37914
 20
247.30084
 30
-1.000000E+20
  9
$LIMMIN
 10
-86.993829
 20
74.905333
  9
$LIMMAX
 10
268.37914
 20
247.30084
  9
$ORTHOMODE
 70
     0
  9
$REGENMODE
 70
     1
  9
$FILLMODE
 70
     1
  9
$QTEXTMODE
 70
     0
  9
$MIRRTEXT
 70
     1
  9
$LTSCALE
 40
1.0
  9
$ATTMODE
 70
     1
  9
$TEXTSIZE
 40
0.2
  9
$TRACEWID
 40
0.05
  9
$TEXTSTYLE
  7
Standard
  9
$CLAYER
  8
0
  9
$CELTYPE
  6
Continuous
  9
$CECOLOR
 62
   256
  9
$CELTSCALE
 40
1.0
  9
$DISPSILH
 70
     0
  9
$DIMSCALE
 40
1.0
  9
$DIMASZ
 40
0.18
  9
$DIMEXO
 40
0.0625
  9
$DIMDLI
 40
0.38
  9
$DIMRND
 40
0.0
  9
$DIMDLE
 40
0.0
  9
$DIMEXE
 40
0.18
  9
$DIMTP
 40
0.0
  9
$DIMTM
 40
0.0
  9
$DIMTXT
 40
0.18
  9
$DIMCEN
 40
0.09
  9
$DIMTSZ
 40
0.0
  9
$DIMTOL
 70
     0
  9
$DIMLIM
 70
     0
  9
$DIMTIH
 70
     1
  9
$DIMTOH
 70
     1
  9
$DIMSE1
 70
     0
  9
$DIMSE2
 70
     0
  9
$DIMTAD
 70
     0
  9
$DIMZIN
 70
     0
  9
$DIMBLK
  1

  9
$DIMASO
 70
     1
  9
$DIMSHO
 70
     1
  9
$DIMPOST
  1

  9
$DIMAPOST
  1

  9
$DIMALT
 70
     0
  9
$DIMALTD
 70
     2
  9
$DIMALTF
 40
25.4
  9
$DIMLFAC
 40
1.0
  9
$DIMTOFL
 70
     0
  9
$DIMTVP
 40
0.0
  9
$DIMTIX
 70
     0
  9
$DIMSOXD
 70
     0
  9
$DIMSAH
 70
     0
  9
$DIMBLK1
  1

  9
$DIMBLK2
  1

  9
$DIMSTYLE
  2
Standard
  9
$DIMCLRD
 70
     0
  9
$DIMCLRE
 70
     0
  9
$DIMCLRT
 70
     0
  9
$DIMTFAC
 40
1.0
  9
$DIMGAP
 40
0.09
  9
$DIMJUST
 70
     0
  9
$DIMSD1
 70
     0
  9
$DIMSD2
 70
     0
  9
$DIMTOLJ
 70
     1
  9
$DIMTZIN
 70
     0
  9
$DIMALTZ
 70
     0
  9
$DIMALTTZ
 70
     0
  9
$DIMUPT
 70
     0
  9
$DIMDEC
 70
     4
  9
$DIMTDEC
 70
     4
  9
$DIMALTU
 70
     2
  9
$DIMALTTD
 70
     2
  9
$DIMTXSTY
  7
Standard
  9
$DIMAUNIT
 70
     0
  9
$DIMADEC
 70
     0
  9
$DIMALTRND
 40
0.0
  9
$DIMAZIN
 70
     0
  9
$DIMDSEP
 70
     0
  9
$DIMATFIT
 70
     3
  9
$DIMFRAC
 70
     0
  9
$DIMLDRBLK
  1

  9
$DIMLUNIT
 70
     2
  9
$DIMLWD
 70
     0
  9
$DIMLWE
 70
     0
  9
$DIMTMOVE
 70
     0
  9
$LUNITS
 70
     2
  9
$LUPREC
 70
     4
  9
$SKETCHINC
 40
0.1
  9
$FILLETRAD
 40
0.0
  9
$AUNITS
 70
     0
  9
$AUPREC
 70
     0
  9
$MENU
  1
acad
  9
$ELEVATION
 40
0.0
  9
$PELEVATION
 40
0.0
  9
$THICKNESS
 40
0.0
  9
$LIMCHECK
 70
     0
  9
$CHAMFERA
 40
0.0
  9
$CHAMFERB
 40
0.0
  9
$CHAMFERC
 40
0.0
  9
$CHAMFERD
 40
0.0
  9
$SKPOLY
 70
     0
  9
$TDCREATE
 40
0.000000000
  9
$TDUCREATE
 40
0.000000000
  9
$TDUPDATE
 40
0.000000000
  9
$TDUUPDATE
 40
0.000000000
  9
$TDINDWG
 40
0.0000000000
  9
$TDUSRTIMER
 40
0.0000000000
  9
$USRTIMER
 70
     1
  9
$ANGBASE
 50
0.0
  9
$ANGDIR
 70
     0
  9
$PDMODE
 70
     0
  9
$PDSIZE
 40
0.0
  9
$PLINEWID
 40
0.0
  9
$SPLFRAME
 70
     0
  9
$SPLINETYPE
 70
     6
  9
$SPLINESEGS
 70
     8
  9
$HANDSEED
  5
1DF
  9
$SURFTAB1
 70
     6
  9
$SURFTAB2
 70
     6
  9
$SURFTYPE
 70
     6
  9
$SURFU
 70
     6
  9
$SURFV
 70
     6
  9
$UCSBASE
  2

  9
$UCSNAME
  2

  9
$UCSORG
 10
0.0
 20
0.0
 30
0.0
  9
$UCSXDIR
 10
1.0
 20
0.0
 30
0.0
  9
$UCSYDIR
 10
0.0
 20
1.0
 30
0.0
  9
$UCSORTHOREF
  2

  9
$UCSORTHOVIEW
 70
     0
  9
$UCSORGTOP
 10
0.0
 20
0.0
 30
0.0
  9
$UCSORGBOTTOM
 10
0.0
 20
0.0
 30
0.0
  9
$UCSORGLEFT
 10
0.0
 20
0.0
 30
0.0
  9
$UCSORGRIGHT
 10
0.0
 20
0.0
 30
0.0
  9
$UCSORGFRONT
 10
0.0
 20
0.0
 30
0.0
  9
$UCSORGBACK
 10
0.0
 20
0.0
 30
0.0
  9
$PUCSBASE
  2

  9
$PUCSNAME
  2

  9
$PUCSORG
 10
0.0
 20
0.0
 30
0.0
  9
$PUCSXDIR
 10
1.0
 20
0.0
 30
0.0
  9
$PUCSYDIR
 10
0.0
 20
1.0
 30
0.0
  9
$PUCSORTHOREF
  2

  9
$PUCSORTHOVIEW
 70
     0
  9
$PUCSORGTOP
 10
0.0
 20
0.0
 30
0.0
  9
$PUCSORGBOTTOM
 10
0.0
 20
0.0
 30
0.0
  9
$PUCSORGLEFT
 10
0.0
 20
0.0
 30
0.0
  9
$PUCSORGRIGHT
 10
0.0
 20
0.0
 30
0.0
  9
$PUCSORGFRONT
 10
0.0
 20
0.0
 30
0.0
  9
$PUCSORGBACK
 10
0.0
 20
0.0
 30
0.0
  9
$USERI1
 70
     0
  9
$USERI2
 70
     0
  9
$USERI3
 70
     0
  9
$USERI4
 70
     0
  9
$USERI5
 70
     0
  9
$USERR1
 40
0.0
  9
$USERR2
 40
0.0
  9
$USERR3
 40
0.0
  9
$USERR4
 40
0.0
  9
$USERR5
 40
0.0
  9
$WORLDVIEW
 70
     1
  9
$SHADEDGE
 70
     3
  9
$SHADEDIF
 70
    70
  9
$TILEMODE
 70
     1
  9
$MAXACTVP
 70
    16
  9
$PINSBASE
 10
0.0
 20
0.0
 30
0.0
  9
$PLIMCHECK
 70
     0
  9
$PEXTMIN
 10
1.000000E+20
 20
1.000000E+20
 30
1.000000E+20
  9
$PEXTMAX
 10
-1.000000E+20
 20
-1.000000E+20
 30
-1.000000E+20
  9
$PLIMMIN
 10
0.0
 20
0.0
  9
$PLIMMAX
 10
12.0
 20
9.0
  9
$UNITMODE
 70
     0
  9
$VISRETAIN
 70
     0
  9
$PLINEGEN
 70
     1
  9
$PSLTSCALE
 70
     0
  9
$TREEDEPTH
 70
  3020
  9
$CMLSTYLE
  2
Standard
  9
$CMLJUST
 70
     0
  9
$CMLSCALE
 40
1.0
  9
$PROXYGRAPHICS
 70
     0
  9
$MEASUREMENT
 70
     0
  9
$CELWEIGHT
370
     0
  9
$ENDCAPS
280
     0
  9
$JOINSTYLE
280
     0
  9
$LWDISPLAY
290
     0
  9
$INSUNITS
 70
     0
  9
$HYPERLINKBASE
  1

  9
$XEDIT
290
     1
  9
$CEPSNTYPE
380
     0
  9
$PSTYLEMODE
290
     1
  9
$FINGERPRINTGUID
  2

  9
$VERSIONGUID
  2

  9
$EXTNAMES
290
     1
  9
$PSVPSCALE
 40
0.0
  0
ENDSEC
  0
SECTION
  2
CLASSES
  0
CLASS
  1
LWPOLYLINE
  2
AcDbPolyline
  3
"AutoCAD"
 90
        0
280
     0
281
     1
  0
CLASS
  1
IMAGE
  2
AcDbRasterImage
  3
ISM
 90
      127
280
     0
281
     1
  0
CLASS
  1
OLE2FRAME
  2
AcDbOle2Frame
  3
""
 90
        0
280
     0
281
     1
  0
CLASS
  1
HATCH
  2
AcDbHatch
  3
"ACAD_SEDONA"
 90
        0
280
     0
281
     1
  0
CLASS
  1
DICTIONARYVAR
  2
AcDbDictionaryVar
  3
"AutoCAD"
 90
        0
280
     0
281
     0
  0
CLASS
  1
RASTERVARIABLES
  2
AcDbRasterVariables
  3
ISM
 90
        0
280
     0
281
     0
  0
CLASS
  1
IMAGEDEF
  2
AcDbRasterImageDef
  3
ISM
 90
        0
280
     0
281
     0
  0
CLASS
  1
IMAGEDEF_REACTOR
  2
AcDbRasterImageDefReactor
  3
ISM
 90
        1
280
     0
281
     0
  0
CLASS
  1
IDBUFFER
  2
AcDbIdBuffer
  3
"Acad"
 90
        0
280
     0
281
     0
  0
CLASS
  1
SPATIAL_FILTER
  2
AcDbSpatialFilter
  3
"Acad"
 90
        0
280
     0
281
     0
  0
CLASS
  1
XRECORD
  2
AcDbXrecord
  3
"<Built In>"
 90
        0
280
     0
281
     0
  0
CLASS
  1
SORTENTSTABLE
  2
AcDbSortentsTable
  3
"AutoCAD"
 90
        0
280
     0
281
     0
  0
CLASS
  1
LAYER_INDEX
  2
AcDbLayerIndex
  3
"Acad"
 90
        0
280
     0
281
     0
  0
CLASS
  1
SPATIAL_INDEX
  2
AcDbSpatialIndex
  3
"Acad"
 90
        0
280
     0
281
     0
  0
CLASS
  1
OBJECT_PTR
  2
CAseDLPNTableRecord
  3
"ASE-LPNTableRecord"
 90
        1
280
     0
281
     0
  0
CLASS
  1
LAYOUT
  2
AcDbLayout
  3
"AutoCAD 2000"
 90
        1
280
     0
281
     0
  0
CLASS
  1
PLOTSETTINGS
  2
AcDbPlotSettings
  3
"AutoCAD 2000"
 90
        1
280
     0
281
     0
  0
CLASS
  1
ACDBDICTIONARYWDFLT
  2
AcDbDictionaryWithDefault
  3
"AutoCAD 2000"
 90
        1
280
     0
281
     0
  0
CLASS
  1
ACDBPLACEHOLDER
  2
AcDbPlaceHolder
  3
"AutoCAD 2000"
 90
        1
280
     0
281
     0
  0
CLASS
  1
VBA_PROJECT
  2
AcDbVbaProject
  3
"acadvba"
 90
        1
280
     0
281
     0
  0
CLASS
  1
WIPEOUT
  2
AcDbWipeout
  3
WipeOut|AutoCAD Express Tool|expresstools@autodesk.com
 90
      127
280
     0
281
     1
  0
CLASS
  1
WIPEOUTVARIABLES
  2
AcDbWipeoutVariables
  3
WipeOut|AutoCAD Express Tool|expresstools@autodesk.com
 90
        0
280
     0
281
     0
  0
CLASS
  1
RTEXT
  2
RText
  3
RText|AutoCAD Express Tool|expresstools@autodesk.com
 90
        0
280
     0
281
     1
  0
CLASS
  1
ARCALIGNEDTEXT
  2
AcDbArcAlignedText
  3
ATEXT|AutoCAD Express Tool|expresstools@autodesk.com
 90
        0
280
     0
281
     1
  0
ENDSEC
  0
SECTION
  2
TABLES
  0
TABLE
  2
VPORT
  5
7
100
AcDbSymbolTable
 70
     1
  0
VPORT
  5
15
100
AcDbSymbolTableRecord
100
AcDbViewportTableRecord
  2
*ACTIVE
 70
     0
 10
0.0
 20
0.0
 11
1.0
 21
1.0
 12
6.591288
 22
4.579184
 13
0.0
 23
0.0
 14
1.0
 24
1.0
 15
0.0
 25
0.0
 16
0.0
 26
0.0
 36
1.0
 17
0.0
 27
0.0
 37
0.0
 40
9.158369
 41
0.688564
 42
50.0
 43
0.0
 44
0.0
 50
0.0
 51
0.0
 71
     0
 72
   100
 73
     1
 74
     1
 75
     0
 76
     0
 77
     0
 78
     0
281
     0
 65
     0
110
0.0
120
0.0
130
0.0
111
1.0
121
0.0
131
0.0
112
0.0
122
1.0
132
0.0
345
0
346
0
 79
     0
146
0.0
  0
ENDTAB
  0
TABLE
  2
LTYPE
  5
4
100
AcDbSymbolTable
 70
     3
  0
LTYPE
  5
11
100
AcDbSymbolTableRecord
100
AcDbLinetypeTableRecord
  2
ByBlock
 70
    64
  3

 72
    65
 73
     0
 40
0.0
  0
LTYPE
  5
12
100
AcDbSymbolTableRecord
100
AcDbLinetypeTableRecord
  2
ByLayer
 70
    64
  3

 72
    65
 73
     0
 40
0.0
  0
LTYPE
  5
13
100
AcDbSymbolTableRecord
100
AcDbLinetypeTableRecord
  2
Continuous
 70
    64
  3
Solid line
 72
    65
 73
     0
 40
0.0
  0
ENDTAB
  0
TABLE
  2
LAYER
  5
2
100
AcDbSymbolTable
 70
     2
  0
LAYER
  5
14
100
AcDbSymbolTableRecord
100
AcDbLayerTableRecord
  2
0
 70
     0
 62
     7
  6
Continuous
290
     1
370
    -3
390
1D
  0
LAYER
  5
28
100
AcDbSymbolTableRecord
100
AcDbLayerTableRecord
  2
EBENE_1
 70
     0
 62
   160
  6
Continuous
290
     1
370
    -3
390
1F
  0
ENDTAB
  0
TABLE
  2
STYLE
  5
3
100
AcDbSymbolTable
 70
     5
  0
STYLE
  5
17
100
AcDbSymbolTableRecord
100
AcDbTextStyleTableRecord
  2
Standard
 70
     0
 40
0.0
 41
1.0
 50
0.0
 71
     0
 42
0.0
  3
txt
  4

  0
STYLE
  5
24
100
AcDbSymbolTableRecord
100
AcDbTextStyleTableRecord
  2
STD
 70
     0
 40
0.0
 41
1.0
 50
0.0
 71
     0
 42
0.0
  3
txt
  4

  0
STYLE
  5
25
100
AcDbSymbolTableRecord
100
AcDbTextStyleTableRecord
  2
TATESTD
 70
     4
 40
0.0
 41
1.0
 50
0.0
 71
     0
 42
0.0
  3
txt
  4

  0
STYLE
  5
26
100
AcDbSymbolTableRecord
100
AcDbTextStyleTableRecord
  2
KANJISTD
 70
     0
 40
0.0
 41
1.0
 50
0.0
 71
     0
 42
0.0
  3
txt
  4
extfont
  0
STYLE
  5
27
100
AcDbSymbolTableRecord
100
AcDbTextStyleTableRecord
  2
KANJITATE
 70
     4
 40
0.0
 41
1.0
 50
0.0
 71
     0
 42
0.0
  3
txt
  4
extfont
  0
ENDTAB
  0
TABLE
  2
VIEW
  5
5
100
AcDbSymbolTable
 70
     0
  0
ENDTAB
  0
TABLE
  2
UCS
  5
6
100
AcDbSymbolTable
 70
     0
  0
ENDTAB
  0
TABLE
  2
APPID
  5
8
100
AcDbSymbolTable
 70
     1
  0
APPID
  5
16
100
AcDbSymbolTableRecord
100
AcDbRegAppTableRecord
  2
ACAD
 70
     0
  0
ENDTAB
  0
TABLE
  2
DIMSTYLE
  5
9
100
AcDbSymbolTable
 70
     1
100
AcDbDimStyleTable
 71
     0
  0
DIMSTYLE
105
18
100
AcDbSymbolTableRecord
100
AcDbDimStyleTableRecord
  2
Standard
 70
     0
  3

  4

 40
1.0
 41
0.18
 42
0.0625
 43
0.38
 44
0.18
 45
0.0
 46
0.0
 47
0.0
 48
0.0
 71
     0
 72
     0
 73
     1
 74
     1
 75
     0
 76
     0
 77
     0
 78
     0
 79
     0
140
0.18
141
0.09
142
0.0
143
25.4
144
1.0
145
0.0
146
1.0
147
0.09
148
0.0
170
     0
171
     2
172
     0
173
     0
174
     0
175
     0
176
     0
177
     0
178
     0
179
     0
271
     4
272
     4
273
     2
274
     2
275
     0
276
     0
277
     2
278
    46
279
     0
280
     0
281
     0
282
     0
283
     1
284
     0
285
     0
286
     0
288
     0
340
17
341
0
342
0
343
0
344
0
371
    -2
372
    -2
  0
ENDTAB
  0
TABLE
  2
BLOCK_RECORD
  5
1
100
AcDbSymbolTable
 70
     0
  0
BLOCK_RECORD
  5
A
100
AcDbSymbolTableRecord
100
AcDbBlockTableRecord
  2
*MODEL_SPACE
340
20
  0
BLOCK_RECORD
  5
B
100
AcDbSymbolTableRecord
100
AcDbBlockTableRecord
  2
*PAPER_SPACE
340
21
  0
ENDTAB
  0
ENDSEC
  0
SECTION
  2
BLOCKS
  0
BLOCK
  5
D
100
AcDbEntity
  8
0
100
AcDbBlockBegin
  2
*MODEL_SPACE
 70
     0
 10
0.0
 20
0.0
 30
0.0
  3
*MODEL_SPACE
  1

  0
ENDBLK
  5
E
100
AcDbEntity
  8
0
100
AcDbBlockEnd
  0
BLOCK
  5
F
100
AcDbEntity
 67
     1
  8
0
100
AcDbBlockBegin
  2
*PAPER_SPACE
 70
     0
 10
0.0
 20
0.0
 30
0.0
  3
*PAPER_SPACE
  1

  0
ENDBLK
  5
10
100
AcDbEntity
 67
     1
  8
0
100
AcDbBlockEnd
  0
ENDSEC
  0
SECTION
  2
ENTITIES
  0
POLYLINE
  5
1D6
100
AcDbEntity
  8
EBENE_1
 62
   250
100
AcDb2dPolyline
 66
     1
 10
0.0
 20
0.0
 30
0.0
  0
VERTEX
  5
1D7
100
AcDbEntity
  8
EBENE_1
 62
   250
100
AcDbVertex
100
AcDb2dVertex
 10
146.422759
 20
197.305097
 30
0.0
  0
VERTEX
  5
1D8
100
AcDbEntity
  8
EBENE_1
 62
   250
100
AcDbVertex
100
AcDb2dVertex
 10
146.422759
 20
197.294073
 30
0.0
  0
VERTEX
  5
1D9
100
AcDbEntity
  8
EBENE_1
 62
   250
100
AcDbVertex
100
AcDb2dVertex
 10
146.922987
 20
196.794017
 30
0.0
  0
VERTEX
  5
1DA
100
AcDbEntity
  8
EBENE_1
 62
   250
100
AcDbVertex
100
AcDb2dVertex
 10
157.422949
 20
196.794017
 30
0.0
  0
VERTEX
  5
1DB
100
AcDbEntity
  8
EBENE_1
 62
   250
100
AcDbVertex
100
AcDb2dVertex
 10
157.422949
 20
208.793974
 30
0.0
  0
VERTEX
  5
1DC
100
AcDbEntity
  8
EBENE_1
 62
   250
100
AcDbVertex
100
AcDb2dVertex
 10
146.922987
 20
208.793974
 30
0.0
  0
VERTEX
  5
1DD
100
AcDbEntity
  8
EBENE_1
 62
   250
100
AcDbVertex
100
AcDb2dVertex
 10
146.422759
 20
208.29409
 30
0.0
  0
SEQEND
  5
1DE
100
AcDbEntity
  8
EBENE_1
 62
   250
  0
LINE
  5
1D5
100
AcDbEntity
  8
EBENE_1
 62
   250
100
AcDbLine
 10
157.422949
 20
193.794028
 30
0.0
 11
160.422938
 21
193.794028
 31
0.0
  0
SPLINE
  5
1D4
100
AcDbEntity
  8
EBENE_1
 62
   250
100
AcDbSpline
210
0.0
220
0.0
230
1.0
 70
     8
 71
     3
 72
     8
 73
     4
 74
     0
 42
0.00000001
 43
0.00000001
 40
0.0
 40
0.0
 40
0.0
 40
0.0
 40
1.0
 40
1.0
 40
1.0
 40
1.0
 10
155.42272677951388
 20
196.79401719835067
 30
0.0
 10
155.61909722222219
 20
200.8008355034722
 30
0.0
 10
155.45166558159721
 20
204.81730007595485
 30
0.0
 10
154.92249891493054
 20
208.7939737955729
 30
0.0
  0
SPLINE
  5
1D3
100
AcDbEntity
  8
EBENE_1
 62
   250
100
AcDbSpline
210
0.0
220
0.0
230
1.0
 70
     8
 71
     3
 72
     8
 73
     4
 74
     0
 42
0.00000001
 43
0.00000001
 40
0.0
 40
0.0
 40
0.0
 40
0.0
 40
1.0
 40
1.0
 40
1.0
 40
1.0
 10
154.42227105034721
 20
196.79401719835067
 30
0.0
 10
154.61864149305555
 20
200.8008355034722
 30
0.0
 10
154.45120985243054
 20
204.81730007595485
 30
0.0
 10
153.92273220486109
 20
208.7939737955729
 30
0.0
  0
SPLINE
  5
1D2
100
AcDbEntity
  8
EBENE_1
 62
   250
100
AcDbSpline
210
0.0
220
0.0
230
1.0
 70
     8
 71
     3
 72
     8
 73
     4
 74
     0
 42
0.00000001
 43
0.00000001
 40
0.0
 40
0.0
 40
0.0
 40
0.0
 40
1.0
 40
1.0
 40
1.0
 40
1.0
 10
153.42250434027775
 20
196.79401719835067
 30
0.0
 10
153.6188747829861
 20
200.8008355034722
 30
0.0
 10
153.45144314236109
 20
204.81730007595485
 30
0.0
 10
152.92227647569442
 20
208.7939737955729
 30
0.0
  0
SPLINE
  5
1D1
100
AcDbEntity
  8
EBENE_1
 62
   250
100
AcDbSpline
210
0.0
220
0.0
230
1.0
 70
     8
 71
     3
 72
     8
 73
     4
 74
     0
 42
0.00000001
 43
0.00000001
 40
0.0
 40
0.0
 40
0.0
 40
0.0
 40
1.0
 40
1.0
 40
1.0
 40
1.0
 10
152.42273763020833
 20
196.79401719835067
 30
0.0
 10
152.61841905381942
 20
200.8008355034722
 30
0.0
 10
152.45167643229166
 20
204.81730007595485
 30
0.0
 10
151.92250976562499
 20
208.7939737955729
 30
0.0
  0
SPLINE
  5
1D0
100
AcDbEntity
  8
EBENE_1
 62
   250
100
AcDbSpline
210
0.0
220
0.0
230
1.0
 70
     8
 71
     3
 72
     8
 73
     4
 74
     0
 42
0.00000001
 43
0.00000001
 40
0.0
 40
0.0
 40
0.0
 40
0.0
 40
1.0
 40
1.0
 40
1.0
 40
1.0
 10
151.42228190104166
 20
196.79401719835067
 30
0.0
 10
151.61865234375
 20
200.8008355034722
 30
0.0
 10
151.45122070312499
 20
204.81730007595485
 30
0.0
 10
150.92274305555554
 20
208.7939737955729
 30
0.0
  0
SPLINE
  5
1CF
100
AcDbEntity
  8
EBENE_1
 62
   250
100
AcDbSpline
210
0.0
220
0.0
230
1.0
 70
     8
 71
     3
 72
     8
 73
     4
 74
     0
 42
0.00000001
 43
0.00000001
 40
0.0
 40
0.0
 40
0.0
 40
0.0
 40
1.0
 40
1.0
 40
1.0
 40
1.0
 10
150.42251519097221
 20
196.79401719835067
 30
0.0
 10
150.61888563368055
 20
200.8008355034722
 30
0.0
 10
150.45145399305554
 20
204.81730007595485
 30
0.0
 10
149.92228732638887
 20
208.7939737955729
 30
0.0
  0
SPLINE
  5
1CE
100
AcDbEntity
  8
EBENE_1
 62
   250
100
AcDbSpline
210
0.0
220
0.0
230
1.0
 70
     8
 71
     3
 72
     8
 73
     4
 74
     0
 42
0.00000001
 43
0.00000001
 40
0.0
 40
0.0
 40
0.0
 40
0.0
 40
1.0
 40
1.0
 40
1.0
 40
1.0
 10
149.42274848090275
 20
196.79401719835067
 30
0.0
 10
149.61842990451387
 20
200.8008355034722
 30
0.0
 10
149.45168728298609
 20
204.81730007595485
 30
0.0
 10
148.92252061631942
 20
208.7939737955729
 30
0.0
  0
SPLINE
  5
1CD
100
AcDbEntity
  8
EBENE_1
 62
   250
100
AcDbSpline
210
0.0
220
0.0
230
1.0
 70
     8
 71
     3
 72
     8
 73
     4
 74
     0
 42
0.00000001
 43
0.00000001
 40
0.0
 40
0.0
 40
0.0
 40
0.0
 40
1.0
 40
1.0
 40
1.0
 40
1.0
 10
148.42229275173611
 20
196.79401719835067
 30
0.0
 10
148.61866319444442
 20
200.8008355034722
 30
0.0
 10
148.45123155381944
 20
204.81730007595485
 30
0.0
 10
147.92275390624999
 20
208.7939737955729
 30
0.0
  0
SPLINE
  5
1CC
100
AcDbEntity
  8
EBENE_1
 62
   250
100
AcDbSpline
210
0.0
220
0.0
230
1.0
 70
     8
 71
     3
 72
     8
 73
     4
 74
     0
 42
0.00000001
 43
0.00000001
 40
0.0
 40
0.0
 40
0.0
 40
0.0
 40
1.0
 40
1.0
 40
1.0
 40
1.0
 10
147.42252604166666
 20
196.79401719835067
 30
0.0
 10
147.618896484375
 20
200.8008355034722
 30
0.0
 10
147.45146484374999
 20
204.81730007595485
 30
0.0
 10
146.92229817708332
 20
208.7939737955729
 30
0.0
  0
LINE
  5
1CB
100
AcDbEntity
  8
EBENE_1
 62
   250
100
AcDbLine
 10
146.922987
 20
196.794017
 30
0.0
 11
146.922987
 21
208.793974
 31
0.0
  0
SPLINE
  5
1CA
100
AcDbEntity
  8
EBENE_1
 62
   250
100
AcDbSpline
210
0.0
220
0.0
230
1.0
 70
     8
 71
     3
 72
     8
 73
     4
 74
     0
 42
0.00000001
 43
0.00000001
 40
0.0
 40
0.0
 40
0.0
 40
0.0
 40
1.0
 40
1.0
 40
1.0
 40
1.0
 10
156.42249348958333
 20
196.79401719835067
 30
0.0
 10
156.61886393229165
 20
200.8008355034722
 30
0.0
 10
156.45143229166666
 20
204.81730007595485
 30
0.0
 10
155.92226562499999
 20
208.7939737955729
 30
0.0
  0
LINE
  5
1C9
100
AcDbEntity
  8
EBENE_1
 62
   250
100
AcDbLine
 10
157.422949
 20
201.294001
 30
0.0
 11
160.422938
 21
201.294001
 31
0.0
  0
LINE
  5
1C8
100
AcDbEntity
  8
EBENE_1
 62
   250
100
AcDbLine
 10
160.422938
 20
204.29399
 30
0.0
 11
157.422949
 21
204.29399
 31
0.0
  0
LINE
  5
1C7
100
AcDbEntity
  8
EBENE_1
 62
   250
100
AcDbLine
 10
157.422949
 20
211.793963
 30
0.0
 11
160.422938
 21
211.793963
 31
0.0
  0
POLYLINE
  5
1C1
100
AcDbEntity
  8
EBENE_1
 62
   250
100
AcDb2dPolyline
 66
     1
 10
0.0
 20
0.0
 30
0.0
 70
     1
  0
VERTEX
  5
1C2
100
AcDbEntity
  8
EBENE_1
 62
   250
100
AcDbVertex
100
AcDb2dVertex
 10
157.422949
 20
192.794089
 30
0.0
  0
VERTEX
  5
1C3
100
AcDbEntity
  8
EBENE_1
 62
   250
100
AcDbVertex
100
AcDb2dVertex
 10
160.422938
 20
192.794089
 30
0.0
  0
VERTEX
  5
1C4
100
AcDbEntity
  8
EBENE_1
 62
   250
100
AcDbVertex
100
AcDb2dVertex
 10
160.422938
 20
212.794074
 30
0.0
  0
VERTEX
  5
1C5
100
AcDbEntity
  8
EBENE_1
 62
   250
100
AcDbVertex
100
AcDb2dVertex
 10
157.422949
 20
212.794074
 30
0.0
  0
SEQEND
  5
1C6
100
AcDbEntity
  8
EBENE_1
 62
   250
  0
POLYLINE
  5
1BB
100
AcDbEntity
  8
EBENE_1
 62
   250
100
AcDb2dPolyline
 66
     1
 10
0.0
 20
0.0
 30
0.0
 70
     1
  0
VERTEX
  5
1BC
100
AcDbEntity
  8
EBENE_1
 62
   250
100
AcDbVertex
100
AcDb2dVertex
 10
158.271132
 20
175.756886
 30
0.0
  0
VERTEX
  5
1BD
100
AcDbEntity
  8
EBENE_1
 62
   250
100
AcDbVertex
100
AcDb2dVertex
 10
160.371262
 20
175.756886
 30
0.0
  0
VERTEX
  5
1BE
100
AcDbEntity
  8
EBENE_1
 62
   250
100
AcDbVertex
100
AcDb2dVertex
 10
160.371262
 20
189.757065
 30
0.0
  0
VERTEX
  5
1BF
100
AcDbEntity
  8
EBENE_1
 62
   250
100
AcDbVertex
100
AcDb2dVertex
 10
158.271132
 20
189.757065
 30
0.0
  0
SEQEND
  5
1C0
100
AcDbEntity
  8
EBENE_1
 62
   250
  0
POLYLINE
  5
1B2
100
AcDbEntity
  8
EBENE_1
 62
   250
100
AcDb2dPolyline
 66
     1
 10
0.0
 20
0.0
 30
0.0
 70
     1
  0
VERTEX
  5
1B3
100
AcDbEntity
  8
EBENE_1
 62
   250
100
AcDbVertex
100
AcDb2dVertex
 10
150.570654
 20
178.907081
 30
0.0
  0
VERTEX
  5
1B4
100
AcDbEntity
  8
EBENE_1
 62
   250
100
AcDbVertex
100
AcDb2dVertex
 10
150.570654
 20
186.607214
 30
0.0
  0
VERTEX
  5
1B5
100
AcDbEntity
  8
EBENE_1
 62
   250
100
AcDbVertex
100
AcDb2dVertex
 10
150.920676
 20
186.956892
 30
0.0
  0
VERTEX
  5
1B6
100
AcDbEntity
  8
EBENE_1
 62
   250
100
AcDbVertex
100
AcDb2dVertex
 10
158.271132
 20
186.956892
 30
0.0
  0
VERTEX
  5
1B7
100
AcDbEntity
  8
EBENE_1
 62
   250
100
AcDbVertex
100
AcDb2dVertex
 10
158.271132
 20
178.55706
 30
0.0
  0
VERTEX
  5
1B8
100
AcDbEntity
  8
EBENE_1
 62
   250
100
AcDbVertex
100
AcDb2dVertex
 10
150.920676
 20
178.55706
 30
0.0
  0
VERTEX
  5
1B9
100
AcDbEntity
  8
EBENE_1
 62
   250
100
AcDbVertex
100
AcDb2dVertex
 10
150.570654
 20
178.907081
 30
0.0
  0
SEQEND
  5
1BA
100
AcDbEntity
  8
EBENE_1
 62
   250
  0
SPLINE
  5
1B1
100
AcDbEntity
  8
EBENE_1
 62
   250
100
AcDbSpline
210
0.0
220
0.0
230
1.0
 70
     8
 71
     3
 72
     8
 73
     4
 74
     0
 42
0.00000001
 43
0.00000001
 40
0.0
 40
0.0
 40
0.0
 40
0.0
 40
1.0
 40
1.0
 40
1.0
 40
1.0
 10
157.42294921874998
 20
196.79487847222219
 30
0.0
 10
157.48702799479165
 20
200.80135226779512
 30
0.0
 10
157.31959635416666
 20
204.80834282769095
 30
0.0
 10
156.92272135416664
 20
208.79552408854164
 30
0.0
  0
SPLINE
  5
1B0
100
AcDbEntity
  8
EBENE_1
 62
   250
100
AcDbSpline
210
0.0
220
0.0
230
1.0
 70
     8
 71
     3
 72
     8
 73
     4
 74
     0
 42
0.00000001
 43
0.00000001
 40
0.0
 40
0.0
 40
0.0
 40
0.0
 40
1.0
 40
1.0
 40
1.0
 40
1.0
 10
158.27182074652777
 20
178.55740424262152
 30
0.0
 10
158.31660698784719
 20
181.36136745876735
 30
0.0
 10
158.19947374131942
 20
184.16567518446178
 30
0.0
 10
157.92179904513887
 20
186.95620252821178
 30
0.0
  0
LINE
  5
1AF
100
AcDbEntity
  8
EBENE_1
 62
   250
100
AcDbLine
 10
158.271132
 20
189.057022
 30
0.0
 11
160.371262
 21
189.057022
 31
0.0
  0
LINE
  5
1AE
100
AcDbEntity
  8
EBENE_1
 62
   250
100
AcDbLine
 10
160.371262
 20
183.807041
 30
0.0
 11
158.271132
 21
183.807041
 31
0.0
  0
LINE
  5
1AD
100
AcDbEntity
  8
EBENE_1
 62
   250
100
AcDbLine
 10
158.271132
 20
181.706911
 30
0.0
 11
160.371262
 21
181.706911
 31
0.0
  0
LINE
  5
1AC
100
AcDbEntity
  8
EBENE_1
 62
   250
100
AcDbLine
 10
158.271132
 20
176.45693
 30
0.0
 11
160.371262
 21
176.45693
 31
0.0
  0
SPLINE
  5
1AB
100
AcDbEntity
  8
EBENE_1
 62
   250
100
AcDbSpline
210
0.0
220
0.0
230
1.0
 70
     8
 71
     3
 72
     8
 73
     4
 74
     0
 42
0.00000001
 43
0.00000001
 40
0.0
 40
0.0
 40
0.0
 40
0.0
 40
1.0
 40
1.0
 40
1.0
 40
1.0
 10
157.57108832465278
 20
178.55705973307289
 30
0.0
 10
157.70889214409721
 20
181.36205647786457
 30
0.0
 10
157.59175889756943
 20
184.17359890407985
 30
0.0
 10
157.22106662326388
 20
186.95758056640622
 30
0.0
  0
SPLINE
  5
1AA
100
AcDbEntity
  8
EBENE_1
 62
   250
100
AcDbSpline
210
0.0
220
0.0
230
1.0
 70
     8
 71
     3
 72
     8
 73
     4
 74
     0
 42
0.00000001
 43
0.00000001
 40
0.0
 40
0.0
 40
0.0
 40
0.0
 40
1.0
 40
1.0
 40
1.0
 40
1.0
 10
156.87104492187498
 20
178.55705973307289
 30
0.0
 10
157.00884874131944
 20
181.36205647786457
 30
0.0
 10
156.89171549479164
 20
184.17359890407985
 30
0.0
 10
156.52102322048609
 20
186.95758056640622
 30
0.0
  0
SPLINE
  5
1A9
100
AcDbEntity
  8
EBENE_1
 62
   250
100
AcDbSpline
210
0.0
220
0.0
230
1.0
 70
     8
 71
     3
 72
     8
 73
     4
 74
     0
 42
0.00000001
 43
0.00000001
 40
0.0
 40
0.0
 40
0.0
 40
0.0
 40
1.0
 40
1.0
 40
1.0
 40
1.0
 10
156.17100151909722
 20
178.55705973307289
 30
0.0
 10
156.30880533854165
 20
181.36205647786457
 30
0.0
 10
156.19167209201387
 20
184.17359890407985
 30
0.0
 10
155.82097981770832
 20
186.95758056640622
 30
0.0
  0
SPLINE
  5
1A8
100
AcDbEntity
  8
EBENE_1
 62
   250
100
AcDbSpline
210
0.0
220
0.0
230
1.0
 70
     8
 71
     3
 72
     8
 73
     4
 74
     0
 42
0.00000001
 43
0.00000001
 40
0.0
 40
0.0
 40
0.0
 40
0.0
 40
1.0
 40
1.0
 40
1.0
 40
1.0
 10
155.47095811631942
 20
178.55705973307289
 30
0.0
 10
155.60876193576388
 20
181.36205647786457
 30
0.0
 10
155.49162868923611
 20
184.17359890407985
 30
0.0
 10
155.12093641493055
 20
186.95758056640622
 30
0.0
  0
SPLINE
  5
1A7
100
AcDbEntity
  8
EBENE_1
 62
   250
100
AcDbSpline
210
0.0
220
0.0
230
1.0
 70
     8
 71
     3
 72
     8
 73
     4
 74
     0
 42
0.00000001
 43
0.00000001
 40
0.0
 40
0.0
 40
0.0
 40
0.0
 40
1.0
 40
1.0
 40
1.0
 40
1.0
 10
154.77091471354166
 20
178.55705973307289
 30
0.0
 10
154.90940755208331
 20
181.36205647786457
 30
0.0
 10
154.79158528645831
 20
184.17359890407985
 30
0.0
 10
154.42089301215276
 20
186.95758056640622
 30
0.0
  0
SPLINE
  5
1A6
100
AcDbEntity
  8
EBENE_1
 62
   250
100
AcDbSpline
210
0.0
220
0.0
230
1.0
 70
     8
 71
     3
 72
     8
 73
     4
 74
     0
 42
0.00000001
 43
0.00000001
 40
0.0
 40
0.0
 40
0.0
 40
0.0
 40
1.0
 40
1.0
 40
1.0
 40
1.0
 10
154.07087131076386
 20
178.55705973307289
 30
0.0
 10
154.20936414930554
 20
181.36205647786457
 30
0.0
 10
154.09223090277777
 20
184.17359890407985
 30
0.0
 10
153.72084960937499
 20
186.95758056640622
 30
0.0
  0
SPLINE
  5
1A5
100
AcDbEntity
  8
EBENE_1
 62
   250
100
AcDbSpline
210
0.0
220
0.0
230
1.0
 70
     8
 71
     3
 72
     8
 73
     4
 74
     0
 42
0.00000001
 43
0.00000001
 40
0.0
 40
0.0
 40
0.0
 40
0.0
 40
1.0
 40
1.0
 40
1.0
 40
1.0
 10
153.3708279079861
 20
178.55705973307289
 30
0.0
 10
153.50932074652778
 20
181.36205647786457
 30
0.0
 10
153.39218749999998
 20
184.17359890407985
 30
0.0
 10
153.0208062065972
 20
186.95758056640622
 30
0.0
  0
SPLINE
  5
1A4
100
AcDbEntity
  8
EBENE_1
 62
   250
100
AcDbSpline
210
0.0
220
0.0
230
1.0
 70
     8
 71
     3
 72
     8
 73
     4
 74
     0
 42
0.00000001
 43
0.00000001
 40
0.0
 40
0.0
 40
0.0
 40
0.0
 40
1.0
 40
1.0
 40
1.0
 40
1.0
 10
152.67078450520833
 20
178.55705973307289
 30
0.0
 10
152.80927734374998
 20
181.36205647786457
 30
0.0
 10
152.69214409722221
 20
184.17359890407985
 30
0.0
 10
152.32076280381943
 20
186.95758056640622
 30
0.0
  0
SPLINE
  5
1A3
100
AcDbEntity
  8
EBENE_1
 62
   250
100
AcDbSpline
210
0.0
220
0.0
230
1.0
 70
     8
 71
     3
 72
     8
 73
     4
 74
     0
 42
0.00000001
 43
0.00000001
 40
0.0
 40
0.0
 40
0.0
 40
0.0
 40
1.0
 40
1.0
 40
1.0
 40
1.0
 10
151.97074110243054
 20
178.55705973307289
 30
0.0
 10
152.10923394097222
 20
181.36205647786457
 30
0.0
 10
151.99210069444442
 20
184.17359890407985
 30
0.0
 10
151.62071940104164
 20
186.95758056640622
 30
0.0
  0
SPLINE
  5
1A2
100
AcDbEntity
  8
EBENE_1
 62
   250
100
AcDbSpline
210
0.0
220
0.0
230
1.0
 70
     8
 71
     3
 72
     8
 73
     4
 74
     0
 42
0.00000001
 43
0.00000001
 40
0.0
 40
0.0
 40
0.0
 40
0.0
 40
1.0
 40
1.0
 40
1.0
 40
1.0
 10
151.27069769965277
 20
178.55705973307289
 30
0.0
 10
151.40919053819442
 20
181.36205647786457
 30
0.0
 10
151.29205729166665
 20
184.17359890407985
 30
0.0
 10
150.92067599826387
 20
186.95758056640622
 30
0.0
  0
LINE
  5
1A1
100
AcDbEntity
  8
EBENE_1
 62
   250
100
AcDbLine
 10
150.920676
 20
178.55706
 30
0.0
 11
150.920676
 21
186.956892
 31
0.0
  0
LINE
  5
1A0
100
AcDbEntity
  8
EBENE_1
 62
   250
100
AcDbLine
 10
147.423215
 20
208.768136
 30
0.0
 11
147.423215
 21
214.458055
 31
0.0
  0
LINE
  5
19F
100
AcDbEntity
  8
EBENE_1
 62
   250
100
AcDbLine
 10
147.423215
 20
191.458081
 30
0.0
 11
147.423215
 21
196.857062
 31
0.0
  0
POLYLINE
  5
19A
100
AcDbEntity
  8
EBENE_1
 62
   250
100
AcDb2dPolyline
 66
     1
 10
0.0
 20
0.0
 30
0.0
  0
VERTEX
  5
19B
100
AcDbEntity
  8
EBENE_1
 62
   250
100
AcDbVertex
100
AcDb2dVertex
 10
147.922754
 20
196.843971
 30
0.0
  0
VERTEX
  5
19C
100
AcDbEntity
  8
EBENE_1
 62
   250
100
AcDbVertex
100
AcDb2dVertex
 10
147.922754
 20
190.958025
 30
0.0
  0
VERTEX
  5
19D
100
AcDbEntity
  8
EBENE_1
 62
   250
100
AcDbVertex
100
AcDb2dVertex
 10
148.422982
 20
190.958025
 30
0.0
  0
SEQEND
  5
19E
100
AcDbEntity
  8
EBENE_1
 62
   250
  0
POLYLINE
  5
195
100
AcDbEntity
  8
EBENE_1
 62
   250
100
AcDb2dPolyline
 66
     1
 10
0.0
 20
0.0
 30
0.0
  0
VERTEX
  5
196
100
AcDbEntity
  8
EBENE_1
 62
   250
100
AcDbVertex
100
AcDb2dVertex
 10
148.422982
 20
214.958111
 30
0.0
  0
VERTEX
  5
197
100
AcDbEntity
  8
EBENE_1
 62
   250
100
AcDbVertex
100
AcDb2dVertex
 10
147.922754
 20
214.958111
 30
0.0
  0
VERTEX
  5
198
100
AcDbEntity
  8
EBENE_1
 62
   250
100
AcDbVertex
100
AcDb2dVertex
 10
147.922754
 20
208.70199
 30
0.0
  0
SEQEND
  5
199
100
AcDbEntity
  8
EBENE_1
 62
   250
  0
LINE
  5
194
100
AcDbEntity
  8
EBENE_1
 62
   250
100
AcDbLine
 10
148.422982
 20
190.958025
 30
0.0
 11
148.422982
 21
196.857062
 31
0.0
  0
LINE
  5
193
100
AcDbEntity
  8
EBENE_1
 62
   250
100
AcDbLine
 10
148.422982
 20
214.958111
 30
0.0
 11
148.422982
 21
208.755044
 31
0.0
  0
POLYLINE
  5
18E
100
AcDbEntity
  8
EBENE_1
 62
   250
100
AcDb2dPolyline
 66
     1
 10
0.0
 20
0.0
 30
0.0
  0
VERTEX
  5
18F
100
AcDbEntity
  8
EBENE_1
 62
   250
100
AcDbVertex
100
AcDb2dVertex
 10
149.422748
 20
208.741092
 30
0.0
  0
VERTEX
  5
190
100
AcDbEntity
  8
EBENE_1
 62
   250
100
AcDbVertex
100
AcDb2dVertex
 10
149.422748
 20
214.958111
 30
0.0
  0
VERTEX
  5
191
100
AcDbEntity
  8
EBENE_1
 62
   250
100
AcDbVertex
100
AcDb2dVertex
 10
149.922976
 20
214.958111
 30
0.0
  0
SEQEND
  5
192
100
AcDbEntity
  8
EBENE_1
 62
   250
  0
POLYLINE
  5
189
100
AcDbEntity
  8
EBENE_1
 62
   250
100
AcDb2dPolyline
 66
     1
 10
0.0
 20
0.0
 30
0.0
  0
VERTEX
  5
18A
100
AcDbEntity
  8
EBENE_1
 62
   250
100
AcDbVertex
100
AcDb2dVertex
 10
149.922976
 20
190.958025
 30
0.0
  0
VERTEX
  5
18B
100
AcDbEntity
  8
EBENE_1
 62
   250
100
AcDbVertex
100
AcDb2dVertex
 10
149.422748
 20
190.958025
 30
0.0
  0
VERTEX
  5
18C
100
AcDbEntity
  8
EBENE_1
 62
   250
100
AcDbVertex
100
AcDb2dVertex
 10
149.422748
 20
196.869982
 30
0.0
  0
SEQEND
  5
18D
100
AcDbEntity
  8
EBENE_1
 62
   250
  0
POLYLINE
  5
184
100
AcDbEntity
  8
EBENE_1
 62
   250
100
AcDb2dPolyline
 66
     1
 10
0.0
 20
0.0
 30
0.0
  0
VERTEX
  5
185
100
AcDbEntity
  8
EBENE_1
 62
   250
100
AcDbVertex
100
AcDb2dVertex
 10
149.922976
 20
196.843971
 30
0.0
  0
VERTEX
  5
186
100
AcDbEntity
  8
EBENE_1
 62
   250
100
AcDbVertex
100
AcDb2dVertex
 10
149.922976
 20
190.458142
 30
0.0
  0
VERTEX
  5
187
100
AcDbEntity
  8
EBENE_1
 62
   250
100
AcDbVertex
100
AcDb2dVertex
 10
160.422938
 20
190.458142
 30
0.0
  0
SEQEND
  5
188
100
AcDbEntity
  8
EBENE_1
 62
   250
  0
POLYLINE
  5
17E
100
AcDbEntity
  8
EBENE_1
 62
   250
100
AcDb2dPolyline
 66
     1
 10
0.0
 20
0.0
 30
0.0
  0
VERTEX
  5
17F
100
AcDbEntity
  8
EBENE_1
 62
   250
100
AcDbVertex
100
AcDb2dVertex
 10
160.422938
 20
190.458142
 30
0.0
  0
VERTEX
  5
180
100
AcDbEntity
  8
EBENE_1
 62
   250
100
AcDbVertex
100
AcDb2dVertex
 10
160.422938
 20
215.457994
 30
0.0
  0
VERTEX
  5
181
100
AcDbEntity
  8
EBENE_1
 62
   250
100
AcDbVertex
100
AcDb2dVertex
 10
149.922976
 20
215.457994
 30
0.0
  0
VERTEX
  5
182
100
AcDbEntity
  8
EBENE_1
 62
   250
100
AcDbVertex
100
AcDb2dVertex
 10
149.922976
 20
208.768136
 30
0.0
  0
SEQEND
  5
183
100
AcDbEntity
  8
EBENE_1
 62
   250
  0
LINE
  5
17D
100
AcDbEntity
  8
EBENE_1
 62
   250
100
AcDbLine
 10
157.923177
 20
215.457994
 30
0.0
 11
157.923177
 21
212.780122
 31
0.0
  0
LINE
  5
17C
100
AcDbEntity
  8
EBENE_1
 62
   250
100
AcDbLine
 10
149.922976
 20
209.958072
 30
0.0
 11
157.442931
 21
209.958072
 31
0.0
  0
LINE
  5
17B
100
AcDbEntity
  8
EBENE_1
 62
   250
100
AcDbLine
 10
149.922976
 20
210.458127
 30
0.0
 11
157.427772
 21
210.458127
 31
0.0
  0
LINE
  5
17A
100
AcDbEntity
  8
EBENE_1
 62
   250
100
AcDbLine
 10
155.422727
 20
210.663972
 30
0.0
 11
157.458089
 21
210.663972
 31
0.0
  0
LINE
  5
179
100
AcDbEntity
  8
EBENE_1
 62
   250
100
AcDbLine
 10
149.922976
 20
195.958065
 30
0.0
 11
157.458089
 21
195.958065
 31
0.0
  0
LINE
  5
178
100
AcDbEntity
  8
EBENE_1
 62
   250
100
AcDbLine
 10
155.422727
 20
195.348111
 30
0.0
 11
157.434663
 21
195.348111
 31
0.0
  0
LINE
  5
177
100
AcDbEntity
  8
EBENE_1
 62
   250
100
AcDbLine
 10
149.922976
 20
195.458009
 30
0.0
 11
157.427772
 21
195.458009
 31
0.0
  0
LINE
  5
176
100
AcDbEntity
  8
EBENE_1
 62
   250
100
AcDbLine
 10
157.923177
 20
192.815965
 30
0.0
 11
157.923177
 21
190.458142
 31
0.0
  0
LINE
  5
175
100
AcDbEntity
  8
EBENE_1
 62
   250
100
AcDbLine
 10
155.422727
 20
211.756067
 30
0.0
 11
156.539627
 21
211.756067
 31
0.0
  0
LINE
  5
174
100
AcDbEntity
  8
EBENE_1
 62
   250
100
AcDbLine
 10
155.422727
 20
211.958122
 30
0.0
 11
149.922976
 21
211.958122
 31
0.0
  0
LINE
  5
173
100
AcDbEntity
  8
EBENE_1
 62
   250
100
AcDbLine
 10
155.422727
 20
212.340011
 30
0.0
 11
156.539627
 21
212.340011
 31
0.0
  0
LINE
  5
172
100
AcDbEntity
  8
EBENE_1
 62
   250
100
AcDbLine
 10
156.539627
 20
214.067037
 30
0.0
 11
156.539627
 21
211.756067
 31
0.0
  0
LINE
  5
171
100
AcDbEntity
  8
EBENE_1
 62
   250
100
AcDbLine
 10
156.539627
 20
213.483093
 30
0.0
 11
155.422727
 21
213.483093
 31
0.0
  0
LINE
  5
170
100
AcDbEntity
  8
EBENE_1
 62
   250
100
AcDbLine
 10
155.422727
 20
215.159993
 30
0.0
 11
155.422727
 21
210.663972
 31
0.0
  0
LINE
  5
16F
100
AcDbEntity
  8
EBENE_1
 62
   250
100
AcDbLine
 10
156.539627
 20
214.067037
 30
0.0
 11
155.422727
 21
214.067037
 31
0.0
  0
LINE
  5
16E
100
AcDbEntity
  8
EBENE_1
 62
   250
100
AcDbLine
 10
155.422727
 20
214.458055
 30
0.0
 11
149.922976
 21
214.458055
 31
0.0
  0
LINE
  5
16D
100
AcDbEntity
  8
EBENE_1
 62
   250
100
AcDbLine
 10
157.936957
 20
215.159993
 30
0.0
 11
155.422727
 21
215.159993
 31
0.0
  0
LINE
  5
16C
100
AcDbEntity
  8
EBENE_1
 62
   250
100
AcDbLine
 10
155.422727
 20
190.852089
 30
0.0
 11
157.936957
 21
190.852089
 31
0.0
  0
LINE
  5
16B
100
AcDbEntity
  8
EBENE_1
 62
   250
100
AcDbLine
 10
155.422727
 20
191.944012
 30
0.0
 11
156.539627
 21
191.944012
 31
0.0
  0
LINE
  5
16A
100
AcDbEntity
  8
EBENE_1
 62
   250
100
AcDbLine
 10
155.422727
 20
192.528128
 30
0.0
 11
156.539627
 21
192.528128
 31
0.0
  0
LINE
  5
169
100
AcDbEntity
  8
EBENE_1
 62
   250
100
AcDbLine
 10
156.539627
 20
194.254982
 30
0.0
 11
156.539627
 21
191.944012
 31
0.0
  0
LINE
  5
168
100
AcDbEntity
  8
EBENE_1
 62
   250
100
AcDbLine
 10
156.539627
 20
193.697049
 30
0.0
 11
155.422727
 21
193.697049
 31
0.0
  0
LINE
  5
167
100
AcDbEntity
  8
EBENE_1
 62
   250
100
AcDbLine
 10
156.539627
 20
194.254982
 30
0.0
 11
155.422727
 21
194.254982
 31
0.0
  0
LINE
  5
166
100
AcDbEntity
  8
EBENE_1
 62
   250
100
AcDbLine
 10
155.422727
 20
195.348111
 30
0.0
 11
155.422727
 21
190.852089
 31
0.0
  0
LINE
  5
165
100
AcDbEntity
  8
EBENE_1
 62
   250
100
AcDbLine
 10
155.422727
 20
193.958015
 30
0.0
 11
149.922976
 21
193.958015
 31
0.0
  0
LINE
  5
164
100
AcDbEntity
  8
EBENE_1
 62
   250
100
AcDbLine
 10
155.422727
 20
191.458081
 30
0.0
 11
149.922976
 21
191.458081
 31
0.0
  0
SPLINE
  5
163
100
AcDbEntity
  8
EBENE_1
 62
   250
100
AcDbSpline
210
0.0
220
0.0
230
1.0
 70
     8
 71
     3
 72
    11
 73
     7
 74
     0
 42
0.00000001
 43
0.00000001
 40
0.0
 40
0.0
 40
0.0
 40
0.0
 40
1.0
 40
1.0
 40
1.0
 40
2.0
 40
2.0
 40
2.0
 40
2.0
 10
148.42298177083333
 20
190.95802544487844
 30
0.0
 10
148.42298177083333
 20
190.68190104166666
 30
0.0
 10
148.64691297743053
 20
190.45814208984373
 30
0.0
 10
148.92320963541664
 20
190.45814208984373
 30
0.0
 10
149.19881727430555
 20
190.45814208984373
 30
0.0
 10
149.42274848090275
 20
190.68190104166666
 30
0.0
 10
149.42274848090275
 20
190.95802544487844
 30
0.0
  0
SPLINE
  5
162
100
AcDbEntity
  8
EBENE_1
 62
   250
100
AcDbSpline
210
0.0
220
0.0
230
1.0
 70
     8
 71
     3
 72
    11
 73
     7
 74
     0
 42
0.00000001
 43
0.00000001
 40
0.0
 40
0.0
 40
0.0
 40
0.0
 40
1.0
 40
1.0
 40
1.0
 40
2.0
 40
2.0
 40
2.0
 40
2.0
 10
149.42274848090275
 20
214.95811089409719
 30
0.0
 10
149.42274848090275
 20
215.234235297309
 30
0.0
 10
149.19881727430555
 20
215.45799424913193
 30
0.0
 10
148.92320963541664
 20
215.45799424913193
 30
0.0
 10
148.64691297743053
 20
215.45799424913193
 30
0.0
 10
148.42298177083333
 20
215.234235297309
 30
0.0
 10
148.42298177083333
 20
214.95811089409719
 30
0.0
  0
LINE
  5
161
100
AcDbEntity
  8
EBENE_1
 62
   250
100
AcDbLine
 10
146.422759
 20
214.458055
 30
0.0
 11
146.422759
 21
191.458081
 31
0.0
  0
LINE
  5
160
100
AcDbEntity
  8
EBENE_1
 62
   250
100
AcDbLine
 10
145.422993
 20
214.458055
 30
0.0
 11
145.422993
 21
191.458081
 31
0.0
  0
LINE
  5
15F
100
AcDbEntity
  8
EBENE_1
 62
   250
100
AcDbLine
 10
144.423226
 20
214.458055
 30
0.0
 11
144.423226
 21
191.458081
 31
0.0
  0
LINE
  5
15E
100
AcDbEntity
  8
EBENE_1
 62
   250
100
AcDbLine
 10
143.42277
 20
214.458055
 30
0.0
 11
143.42277
 21
191.458081
 31
0.0
  0
LINE
  5
15D
100
AcDbEntity
  8
EBENE_1
 62
   250
100
AcDbLine
 10
142.423003
 20
214.458055
 30
0.0
 11
142.423003
 21
191.458081
 31
0.0
  0
LINE
  5
15C
100
AcDbEntity
  8
EBENE_1
 62
   250
100
AcDbLine
 10
141.423237
 20
214.458055
 30
0.0
 11
141.423237
 21
191.458081
 31
0.0
  0
LINE
  5
15B
100
AcDbEntity
  8
EBENE_1
 62
   250
100
AcDbLine
 10
140.422781
 20
214.458055
 30
0.0
 11
140.422781
 21
191.458081
 31
0.0
  0
POLYLINE
  5
146
100
AcDbEntity
  8
EBENE_1
 62
   250
100
AcDb2dPolyline
 66
     1
 10
0.0
 20
0.0
 30
0.0
  0
VERTEX
  5
147
100
AcDbEntity
  8
EBENE_1
 62
   250
100
AcDbVertex
100
AcDb2dVertex
 10
147.922754
 20
214.958111
 30
0.0
  0
VERTEX
  5
148
100
AcDbEntity
  8
EBENE_1
 62
   250
100
AcDbVertex
100
AcDb2dVertex
 10
147.423215
 20
214.458055
 30
0.0
  0
VERTEX
  5
149
100
AcDbEntity
  8
EBENE_1
 62
   250
100
AcDbVertex
100
AcDb2dVertex
 10
146.922987
 20
214.958111
 30
0.0
  0
VERTEX
  5
14A
100
AcDbEntity
  8
EBENE_1
 62
   250
100
AcDbVertex
100
AcDb2dVertex
 10
146.422759
 20
214.458055
 30
0.0
  0
VERTEX
  5
14B
100
AcDbEntity
  8
EBENE_1
 62
   250
100
AcDbVertex
100
AcDb2dVertex
 10
145.92322
 20
214.958111
 30
0.0
  0
VERTEX
  5
14C
100
AcDbEntity
  8
EBENE_1
 62
   250
100
AcDbVertex
100
AcDb2dVertex
 10
145.422993
 20
214.458055
 30
0.0
  0
VERTEX
  5
14D
100
AcDbEntity
  8
EBENE_1
 62
   250
100
AcDbVertex
100
AcDb2dVertex
 10
144.922765
 20
214.958111
 30
0.0
  0
VERTEX
  5
14E
100
AcDbEntity
  8
EBENE_1
 62
   250
100
AcDbVertex
100
AcDb2dVertex
 10
144.423226
 20
214.458055
 30
0.0
  0
VERTEX
  5
14F
100
AcDbEntity
  8
EBENE_1
 62
   250
100
AcDbVertex
100
AcDb2dVertex
 10
143.922998
 20
214.958111
 30
0.0
  0
VERTEX
  5
150
100
AcDbEntity
  8
EBENE_1
 62
   250
100
AcDbVertex
100
AcDb2dVertex
 10
143.42277
 20
214.458055
 30
0.0
  0
VERTEX
  5
151
100
AcDbEntity
  8
EBENE_1
 62
   250
100
AcDbVertex
100
AcDb2dVertex
 10
142.923231
 20
214.958111
 30
0.0
  0
VERTEX
  5
152
100
AcDbEntity
  8
EBENE_1
 62
   250
100
AcDbVertex
100
AcDb2dVertex
 10
142.423003
 20
214.458055
 30
0.0
  0
VERTEX
  5
153
100
AcDbEntity
  8
EBENE_1
 62
   250
100
AcDbVertex
100
AcDb2dVertex
 10
141.922776
 20
214.958111
 30
0.0
  0
VERTEX
  5
154
100
AcDbEntity
  8
EBENE_1
 62
   250
100
AcDbVertex
100
AcDb2dVertex
 10
141.423237
 20
214.458055
 30
0.0
  0
VERTEX
  5
155
100
AcDbEntity
  8
EBENE_1
 62
   250
100
AcDbVertex
100
AcDb2dVertex
 10
140.923009
 20
214.958111
 30
0.0
  0
VERTEX
  5
156
100
AcDbEntity
  8
EBENE_1
 62
   250
100
AcDbVertex
100
AcDb2dVertex
 10
140.422781
 20
214.458055
 30
0.0
  0
VERTEX
  5
157
100
AcDbEntity
  8
EBENE_1
 62
   250
100
AcDbVertex
100
AcDb2dVertex
 10
139.923242
 20
214.958111
 30
0.0
  0
VERTEX
  5
158
100
AcDbEntity
  8
EBENE_1
 62
   250
100
AcDbVertex
100
AcDb2dVertex
 10
139.423014
 20
214.458055
 30
0.0
  0
VERTEX
  5
159
100
AcDbEntity
  8
EBENE_1
 62
   250
100
AcDbVertex
100
AcDb2dVertex
 10
139.423014
 20
211.458066
 30
0.0
  0
SEQEND
  5
15A
100
AcDbEntity
  8
EBENE_1
 62
   250
  0
POLYLINE
  5
131
100
AcDbEntity
  8
EBENE_1
 62
   250
100
AcDb2dPolyline
 66
     1
 10
0.0
 20
0.0
 30
0.0
  0
VERTEX
  5
132
100
AcDbEntity
  8
EBENE_1
 62
   250
100
AcDbVertex
100
AcDb2dVertex
 10
147.922754
 20
190.958025
 30
0.0
  0
VERTEX
  5
133
100
AcDbEntity
  8
EBENE_1
 62
   250
100
AcDbVertex
100
AcDb2dVertex
 10
147.423215
 20
191.458081
 30
0.0
  0
VERTEX
  5
134
100
AcDbEntity
  8
EBENE_1
 62
   250
100
AcDbVertex
100
AcDb2dVertex
 10
146.922987
 20
190.958025
 30
0.0
  0
VERTEX
  5
135
100
AcDbEntity
  8
EBENE_1
 62
   250
100
AcDbVertex
100
AcDb2dVertex
 10
146.422759
 20
191.458081
 30
0.0
  0
VERTEX
  5
136
100
AcDbEntity
  8
EBENE_1
 62
   250
100
AcDbVertex
100
AcDb2dVertex
 10
145.92322
 20
190.958025
 30
0.0
  0
VERTEX
  5
137
100
AcDbEntity
  8
EBENE_1
 62
   250
100
AcDbVertex
100
AcDb2dVertex
 10
145.422993
 20
191.458081
 30
0.0
  0
VERTEX
  5
138
100
AcDbEntity
  8
EBENE_1
 62
   250
100
AcDbVertex
100
AcDb2dVertex
 10
144.922765
 20
190.958025
 30
0.0
  0
VERTEX
  5
139
100
AcDbEntity
  8
EBENE_1
 62
   250
100
AcDbVertex
100
AcDb2dVertex
 10
144.423226
 20
191.458081
 30
0.0
  0
VERTEX
  5
13A
100
AcDbEntity
  8
EBENE_1
 62
   250
100
AcDbVertex
100
AcDb2dVertex
 10
143.922998
 20
190.958025
 30
0.0
  0
VERTEX
  5
13B
100
AcDbEntity
  8
EBENE_1
 62
   250
100
AcDbVertex
100
AcDb2dVertex
 10
143.42277
 20
191.458081
 30
0.0
  0
VERTEX
  5
13C
100
AcDbEntity
  8
EBENE_1
 62
   250
100
AcDbVertex
100
AcDb2dVertex
 10
142.923231
 20
190.958025
 30
0.0
  0
VERTEX
  5
13D
100
AcDbEntity
  8
EBENE_1
 62
   250
100
AcDbVertex
100
AcDb2dVertex
 10
142.423003
 20
191.458081
 30
0.0
  0
VERTEX
  5
13E
100
AcDbEntity
  8
EBENE_1
 62
   250
100
AcDbVertex
100
AcDb2dVertex
 10
141.922776
 20
190.958025
 30
0.0
  0
VERTEX
  5
13F
100
AcDbEntity
  8
EBENE_1
 62
   250
100
AcDbVertex
100
AcDb2dVertex
 10
141.423237
 20
191.458081
 30
0.0
  0
VERTEX
  5
140
100
AcDbEntity
  8
EBENE_1
 62
   250
100
AcDbVertex
100
AcDb2dVertex
 10
140.923009
 20
190.958025
 30
0.0
  0
VERTEX
  5
141
100
AcDbEntity
  8
EBENE_1
 62
   250
100
AcDbVertex
100
AcDb2dVertex
 10
140.422781
 20
191.458081
 30
0.0
  0
VERTEX
  5
142
100
AcDbEntity
  8
EBENE_1
 62
   250
100
AcDbVertex
100
AcDb2dVertex
 10
139.923242
 20
190.958025
 30
0.0
  0
VERTEX
  5
143
100
AcDbEntity
  8
EBENE_1
 62
   250
100
AcDbVertex
100
AcDb2dVertex
 10
139.423014
 20
191.458081
 30
0.0
  0
VERTEX
  5
144
100
AcDbEntity
  8
EBENE_1
 62
   250
100
AcDbVertex
100
AcDb2dVertex
 10
139.423014
 20
211.458066
 30
0.0
  0
SEQEND
  5
145
100
AcDbEntity
  8
EBENE_1
 62
   250
  0
POLYLINE
  5
129
100
AcDbEntity
  8
EBENE_1
 62
   250
100
AcDb2dPolyline
 66
     1
 10
0.0
 20
0.0
 30
0.0
  0
VERTEX
  5
12A
100
AcDbEntity
  8
EBENE_1
 62
   250
100
AcDbVertex
100
AcDb2dVertex
 10
139.423014
 20
214.458055
 30
0.0
  0
VERTEX
  5
12B
100
AcDbEntity
  8
EBENE_1
 62
   250
100
AcDbVertex
100
AcDb2dVertex
 10
138.423248
 20
213.958
 30
0.0
  0
VERTEX
  5
12C
100
AcDbEntity
  8
EBENE_1
 62
   250
100
AcDbVertex
100
AcDb2dVertex
 10
134.422803
 20
213.958
 30
0.0
  0
VERTEX
  5
12D
100
AcDbEntity
  8
EBENE_1
 62
   250
100
AcDbVertex
100
AcDb2dVertex
 10
134.422803
 20
191.958137
 30
0.0
  0
VERTEX
  5
12E
100
AcDbEntity
  8
EBENE_1
 62
   250
100
AcDbVertex
100
AcDb2dVertex
 10
138.423248
 20
191.958137
 30
0.0
  0
VERTEX
  5
12F
100
AcDbEntity
  8
EBENE_1
 62
   250
100
AcDbVertex
100
AcDb2dVertex
 10
139.423014
 20
191.458081
 30
0.0
  0
SEQEND
  5
130
100
AcDbEntity
  8
EBENE_1
 62
   250
  0
LINE
  5
128
100
AcDbEntity
  8
EBENE_1
 62
   250
100
AcDbLine
 10
150.795964
 20
181.640076
 30
0.0
 11
-7.168555
 21
181.640076
 31
0.0
  0
LINE
  5
127
100
AcDbEntity
  8
EBENE_1
 62
   250
100
AcDbLine
 10
-43.168424
 20
147.140028
 30
0.0
 11
-43.168424
 21
136.139838
 31
0.0
  0
POLYLINE
  5
11E
100
AcDbEntity
  8
EBENE_1
 62
   250
100
AcDb2dPolyline
 66
     1
 10
0.0
 20
0.0
 30
0.0
 70
     1
  0
VERTEX
  5
11F
100
AcDbEntity
  8
EBENE_1
 62
   250
100
AcDbVertex
100
AcDb2dVertex
 10
-44.29342
 20
137.140294
 30
0.0
  0
VERTEX
  5
120
100
AcDbEntity
  8
EBENE_1
 62
   250
100
AcDbVertex
100
AcDb2dVertex
 10
-44.29342
 20
146.140262
 30
0.0
  0
VERTEX
  5
121
100
AcDbEntity
  8
EBENE_1
 62
   250
100
AcDbVertex
100
AcDb2dVertex
 10
-43.168424
 20
147.140028
 30
0.0
  0
VERTEX
  5
122
100
AcDbEntity
  8
EBENE_1
 62
   250
100
AcDbVertex
100
AcDb2dVertex
 10
-21.230918
 20
147.140028
 30
0.0
  0
VERTEX
  5
123
100
AcDbEntity
  8
EBENE_1
 62
   250
100
AcDbVertex
100
AcDb2dVertex
 10
-21.230918
 20
136.139838
 30
0.0
  0
VERTEX
  5
124
100
AcDbEntity
  8
EBENE_1
 62
   250
100
AcDbVertex
100
AcDb2dVertex
 10
-43.168424
 20
136.139838
 30
0.0
  0
VERTEX
  5
125
100
AcDbEntity
  8
EBENE_1
 62
   250
100
AcDbVertex
100
AcDb2dVertex
 10
-44.29342
 20
137.140294
 30
0.0
  0
SEQEND
  5
126
100
AcDbEntity
  8
EBENE_1
 62
   250
  0
POLYLINE
  5
118
100
AcDbEntity
  8
EBENE_1
 62
   250
100
AcDb2dPolyline
 66
     1
 10
0.0
 20
0.0
 30
0.0
 70
     1
  0
VERTEX
  5
119
100
AcDbEntity
  8
EBENE_1
 62
   250
100
AcDbVertex
100
AcDb2dVertex
 10
-21.230918
 20
111.640386
 30
0.0
  0
VERTEX
  5
11A
100
AcDbEntity
  8
EBENE_1
 62
   250
100
AcDbVertex
100
AcDb2dVertex
 10
-18.418342
 20
111.640386
 30
0.0
  0
VERTEX
  5
11B
100
AcDbEntity
  8
EBENE_1
 62
   250
100
AcDbVertex
100
AcDb2dVertex
 10
-18.418342
 20
171.639997
 30
0.0
  0
VERTEX
  5
11C
100
AcDbEntity
  8
EBENE_1
 62
   250
100
AcDbVertex
100
AcDb2dVertex
 10
-21.230918
 20
171.639997
 30
0.0
  0
SEQEND
  5
11D
100
AcDbEntity
  8
EBENE_1
 62
   250
  0
POLYLINE
  5
112
100
AcDbEntity
  8
EBENE_1
 62
   250
100
AcDb2dPolyline
 66
     1
 10
0.0
 20
0.0
 30
0.0
 70
     1
  0
VERTEX
  5
113
100
AcDbEntity
  8
EBENE_1
 62
   250
100
AcDbVertex
100
AcDb2dVertex
 10
-18.418342
 20
91.640229
 30
0.0
  0
VERTEX
  5
114
100
AcDbEntity
  8
EBENE_1
 62
   250
100
AcDbVertex
100
AcDb2dVertex
 10
-7.168555
 20
91.640229
 30
0.0
  0
VERTEX
  5
115
100
AcDbEntity
  8
EBENE_1
 62
   250
100
AcDbVertex
100
AcDb2dVertex
 10
-7.168555
 20
191.639982
 30
0.0
  0
VERTEX
  5
116
100
AcDbEntity
  8
EBENE_1
 62
   250
100
AcDbVertex
100
AcDb2dVertex
 10
-18.418342
 20
191.639982
 30
0.0
  0
SEQEND
  5
117
100
AcDbEntity
  8
EBENE_1
 62
   250
  0
POLYLINE
  5
10C
100
AcDbEntity
  8
EBENE_1
 62
   250
100
AcDb2dPolyline
 66
     1
 10
0.0
 20
0.0
 30
0.0
  0
VERTEX
  5
10D
100
AcDbEntity
  8
EBENE_1
 62
   250
100
AcDbVertex
100
AcDb2dVertex
 10
-7.168555
 20
101.639963
 30
0.0
  0
VERTEX
  5
10E
100
AcDbEntity
  8
EBENE_1
 62
   250
100
AcDbVertex
100
AcDb2dVertex
 10
160.669607
 20
101.639963
 30
0.0
  0
VERTEX
  5
10F
100
AcDbEntity
  8
EBENE_1
 62
   250
100
AcDbVertex
100
AcDb2dVertex
 10
160.669607
 20
181.640076
 30
0.0
  0
VERTEX
  5
110
100
AcDbEntity
  8
EBENE_1
 62
   250
100
AcDbVertex
100
AcDb2dVertex
 10
159.812812
 20
181.640076
 30
0.0
  0
SEQEND
  5
111
100
AcDbEntity
  8
EBENE_1
 62
   250
  0
POLYLINE
  5
106
100
AcDbEntity
  8
EBENE_1
 62
   250
100
AcDb2dPolyline
 66
     1
 10
0.0
 20
0.0
 30
0.0
 70
     1
  0
VERTEX
  5
107
100
AcDbEntity
  8
EBENE_1
 62
   250
100
AcDbVertex
100
AcDb2dVertex
 10
160.582102
 20
101.639963
 30
0.0
  0
VERTEX
  5
108
100
AcDbEntity
  8
EBENE_1
 62
   250
100
AcDbVertex
100
AcDb2dVertex
 10
165.581624
 20
101.639963
 30
0.0
  0
VERTEX
  5
109
100
AcDbEntity
  8
EBENE_1
 62
   250
100
AcDbVertex
100
AcDb2dVertex
 10
165.581624
 20
221.640046
 30
0.0
  0
VERTEX
  5
10A
100
AcDbEntity
  8
EBENE_1
 62
   250
100
AcDbVertex
100
AcDb2dVertex
 10
160.582102
 20
221.640046
 30
0.0
  0
SEQEND
  5
10B
100
AcDbEntity
  8
EBENE_1
 62
   250
  0
POLYLINE
  5
100
100
AcDbEntity
  8
EBENE_1
 62
   250
100
AcDb2dPolyline
 66
     1
 10
0.0
 20
0.0
 30
0.0
  0
VERTEX
  5
101
100
AcDbEntity
  8
EBENE_1
 62
   250
100
AcDbVertex
100
AcDb2dVertex
 10
252.581999
 20
183.639954
 30
0.0
  0
VERTEX
  5
102
100
AcDbEntity
  8
EBENE_1
 62
   250
100
AcDbVertex
100
AcDb2dVertex
 10
252.581999
 20
221.640046
 30
0.0
  0
VERTEX
  5
103
100
AcDbEntity
  8
EBENE_1
 62
   250
100
AcDbVertex
100
AcDb2dVertex
 10
237.582053
 20
221.640046
 30
0.0
  0
VERTEX
  5
104
100
AcDbEntity
  8
EBENE_1
 62
   250
100
AcDbVertex
100
AcDb2dVertex
 10
237.582053
 20
144.640267
 30
0.0
  0
SEQEND
  5
105
100
AcDbEntity
  8
EBENE_1
 62
   250
  0
LINE
  5
FF
100
AcDbEntity
  8
EBENE_1
 62
   250
100
AcDbLine
 10
252.574419
 20
141.231689
 30
0.0
 11
252.574419
 21
184.919807
 31
0.0
  0
LINE
  5
FE
100
AcDbEntity
  8
EBENE_1
 62
   250
100
AcDbLine
 10
165.260197
 20
144.640267
 30
0.0
 11
252.581999
 21
144.640267
 31
0.0
  0
POLYLINE
  5
F7
100
AcDbEntity
  8
EBENE_1
 62
   250
100
AcDb2dPolyline
 66
     1
 10
0.0
 20
0.0
 30
0.0
  0
VERTEX
  5
F8
100
AcDbEntity
  8
EBENE_1
 62
   250
100
AcDbVertex
100
AcDb2dVertex
 10
237.582053
 20
144.640267
 30
0.0
  0
VERTEX
  5
F9
100
AcDbEntity
  8
EBENE_1
 62
   250
100
AcDbVertex
100
AcDb2dVertex
 10
237.582053
 20
101.639963
 30
0.0
  0
VERTEX
  5
FA
100
AcDbEntity
  8
EBENE_1
 62
   250
100
AcDbVertex
100
AcDb2dVertex
 10
252.581999
 20
101.639963
 30
0.0
  0
VERTEX
  5
FB
100
AcDbEntity
  8
EBENE_1
 62
   250
100
AcDbVertex
100
AcDb2dVertex
 10
252.581999
 20
141.640278
 30
0.0
  0
VERTEX
  5
FC
100
AcDbEntity
  8
EBENE_1
 62
   250
100
AcDbVertex
100
AcDb2dVertex
 10
242.581576
 20
141.640278
 30
0.0
  0
SEQEND
  5
FD
100
AcDbEntity
  8
EBENE_1
 62
   250
  0
POLYLINE
  5
F1
100
AcDbEntity
  8
EBENE_1
 62
   250
100
AcDb2dPolyline
 66
     1
 10
0.0
 20
0.0
 30
0.0
 70
     1
  0
VERTEX
  5
F2
100
AcDbEntity
  8
EBENE_1
 62
   250
100
AcDbVertex
100
AcDb2dVertex
 10
165.581624
 20
101.639963
 30
0.0
  0
VERTEX
  5
F3
100
AcDbEntity
  8
EBENE_1
 62
   250
100
AcDbVertex
100
AcDb2dVertex
 10
237.582053
 20
101.639963
 30
0.0
  0
VERTEX
  5
F4
100
AcDbEntity
  8
EBENE_1
 62
   250
100
AcDbVertex
100
AcDb2dVertex
 10
237.582053
 20
221.640046
 30
0.0
  0
VERTEX
  5
F5
100
AcDbEntity
  8
EBENE_1
 62
   250
100
AcDbVertex
100
AcDb2dVertex
 10
165.581624
 20
221.640046
 30
0.0
  0
SEQEND
  5
F6
100
AcDbEntity
  8
EBENE_1
 62
   250
  0
LINE
  5
F0
100
AcDbEntity
  8
EBENE_1
 62
   250
100
AcDbLine
 10
252.581999
 20
214.640129
 30
0.0
 11
160.582102
 21
214.640129
 31
0.0
  0
POLYLINE
  5
EB
100
AcDbEntity
  8
EBENE_1
 62
   250
100
AcDb2dPolyline
 66
     1
 10
0.0
 20
0.0
 30
0.0
  0
VERTEX
  5
EC
100
AcDbEntity
  8
EBENE_1
 62
   250
100
AcDbVertex
100
AcDb2dVertex
 10
252.581999
 20
154.640173
 30
0.0
  0
VERTEX
  5
ED
100
AcDbEntity
  8
EBENE_1
 62
   250
100
AcDbVertex
100
AcDb2dVertex
 10
252.581999
 20
144.640267
 30
0.0
  0
VERTEX
  5
EE
100
AcDbEntity
  8
EBENE_1
 62
   250
100
AcDbVertex
100
AcDb2dVertex
 10
242.581576
 20
144.640267
 30
0.0
  0
SEQEND
  5
EF
100
AcDbEntity
  8
EBENE_1
 62
   250
  0
LINE
  5
EA
100
AcDbEntity
  8
EBENE_1
 62
   250
100
AcDbLine
 10
252.581999
 20
170.639886
 30
0.0
 11
252.581999
 21
180.639964
 31
0.0
  0
LINE
  5
E9
100
AcDbEntity
  8
EBENE_1
 62
   250
100
AcDbLine
 10
252.581999
 20
157.640162
 30
0.0
 11
252.581999
 21
167.639897
 31
0.0
  0
LINE
  5
E8
100
AcDbEntity
  8
EBENE_1
 62
   250
100
AcDbLine
 10
-18.418342
 20
101.639963
 30
0.0
 11
-18.418342
 21
181.640076
 31
0.0
  0
MTEXT
  5
E7
100
AcDbEntity
  8
EBENE_1
 62
   250
100
AcDbMText
 10
-60.232671
 20
144.814818
 30
0.0
 40
3.674769
 41
0.0
 71
     1
 72
     2
  1
\fMyriad Roman|b0|i0; 11k6
  7
STD
210
0.0
220
0.0
230
1.0
 11
1.000001
 21
0.0
 31
0.0
 73
     1
 44
1.0
  0
POLYLINE
  5
E2
100
AcDbEntity
  8
EBENE_1
 62
   250
100
AcDb2dPolyline
 66
     1
 10
0.0
 20
0.0
 30
0.0
 70
     1
  0
VERTEX
  5
E3
100
AcDbEntity
  8
EBENE_1
 62
   250
100
AcDbVertex
100
AcDb2dVertex
 10
-53.755203
 20
136.20564
 30
0.0
  0
VERTEX
  5
E4
100
AcDbEntity
  8
EBENE_1
 62
   250
100
AcDbVertex
100
AcDb2dVertex
 10
-52.633824
 20
132.204506
 30
0.0
  0
VERTEX
  5
E5
100
AcDbEntity
  8
EBENE_1
 62
   250
100
AcDbVertex
100
AcDb2dVertex
 10
-54.876926
 20
132.204506
 30
0.0
  0
SEQEND
  5
E6
100
AcDbEntity
  8
EBENE_1
 62
   250
  0
HATCH
  5
E1
100
AcDbEntity
  8
EBENE_1
 62
   250
100
AcDbHatch
 10
0.0
 20
0.0
 30
0.0
210
0.0
220
0.0
230
1.0
  2
SOLID
 70
     1
 71
     0
 91
        1
 92
        3
 72
     0
 73
     1
 93
        3
 10
-53.755202907986103
 20
136.20563964843748
 10
-52.633824327256939
 20
132.20450575086804
 10
-54.876925998263886
 20
132.20450575086804
 97
        0
 75
     0
 76
     1
 98
        1
 10
0.0
 20
0.0
  0
LINE
  5
E0
100
AcDbEntity
  8
EBENE_1
 62
   250
100
AcDbLine
 10
-53.66787
 20
147.206519
 30
0.0
 11
-53.66787
 21
155.428411
 31
0.0
  0
POLYLINE
  5
DB
100
AcDbEntity
  8
EBENE_1
 62
   250
100
AcDb2dPolyline
 66
     1
 10
0.0
 20
0.0
 30
0.0
 70
     1
  0
VERTEX
  5
DC
100
AcDbEntity
  8
EBENE_1
 62
   250
100
AcDbVertex
100
AcDb2dVertex
 10
-53.66787
 20
147.125559
 30
0.0
  0
VERTEX
  5
DD
100
AcDbEntity
  8
EBENE_1
 62
   250
100
AcDbVertex
100
AcDb2dVertex
 10
-54.789593
 20
151.126004
 30
0.0
  0
VERTEX
  5
DE
100
AcDbEntity
  8
EBENE_1
 62
   250
100
AcDbVertex
100
AcDb2dVertex
 10
-52.546491
 20
151.126004
 30
0.0
  0
SEQEND
  5
DF
100
AcDbEntity
  8
EBENE_1
 62
   250
  0
HATCH
  5
DA
100
AcDbEntity
  8
EBENE_1
 62
   250
100
AcDbHatch
 10
0.0
 20
0.0
 30
0.0
210
0.0
220
0.0
230
1.0
  2
SOLID
 70
     1
 71
     0
 91
        1
 92
        3
 72
     0
 73
     1
 93
        3
 10
-53.667869737413191
 20
147.12555881076386
 10
-54.789592827690967
 20
151.12600368923609
 10
-52.54649115668402
 20
151.12600368923609
 97
        0
 75
     0
 76
     1
 98
        1
 10
0.0
 20
0.0
  0
LINE
  5
D9
100
AcDbEntity
  8
EBENE_1
 62
   250
100
AcDbLine
 10
-68.708812
 20
139.093663
 30
0.0
 11
-68.708812
 21
111.494314
 31
0.0
  0
LINE
  5
D8
100
AcDbEntity
  8
EBENE_1
 62
   250
100
AcDbLine
 10
-20.668334
 20
171.639997
 30
0.0
 11
-68.540864
 21
171.639997
 31
0.0
  0
LINE
  5
D7
100
AcDbEntity
  8
EBENE_1
 62
   250
100
AcDbLine
 10
-21.230918
 20
111.640386
 30
0.0
 11
-68.635259
 21
111.640386
 31
0.0
  0
MTEXT
  5
D6
100
AcDbEntity
  8
EBENE_1
 62
   250
100
AcDbMText
 10
91.769765
 20
145.315046
 30
0.0
 40
3.674769
 41
0.0
 71
     1
 72
     2
  1
\fMyriad Roman|b0|i0; 80.0 
  7
STD
210
0.0
220
0.0
230
1.0
 11
1.000001
 21
0.0
 31
0.0
 73
     1
 44
1.0
  0
POLYLINE
  5
D1
100
AcDbEntity
  8
EBENE_1
 62
   250
100
AcDb2dPolyline
 66
     1
 10
0.0
 20
0.0
 30
0.0
 70
     1
  0
VERTEX
  5
D2
100
AcDbEntity
  8
EBENE_1
 62
   250
100
AcDbVertex
100
AcDb2dVertex
 10
98.51974
 20
181.640076
 30
0.0
  0
VERTEX
  5
D3
100
AcDbEntity
  8
EBENE_1
 62
   250
100
AcDbVertex
100
AcDb2dVertex
 10
99.641119
 20
177.638942
 30
0.0
  0
VERTEX
  5
D4
100
AcDbEntity
  8
EBENE_1
 62
   250
100
AcDbVertex
100
AcDb2dVertex
 10
97.397845
 20
177.638942
 30
0.0
  0
SEQEND
  5
D5
100
AcDbEntity
  8
EBENE_1
 62
   250
  0
HATCH
  5
D0
100
AcDbEntity
  8
EBENE_1
 62
   250
100
AcDbHatch
 10
0.0
 20
0.0
 30
0.0
210
0.0
220
0.0
230
1.0
  2
SOLID
 70
     1
 71
     0
 91
        1
 92
        3
 72
     0
 73
     1
 93
        3
 10
98.51974012586804
 20
181.64007568359372
 10
99.641118706597211
 20
177.63894178602428
 10
97.397844780815959
 20
177.63894178602428
 97
        0
 75
     0
 76
     1
 98
        1
 10
0.0
 20
0.0
  0
LINE
  5
CF
100
AcDbEntity
  8
EBENE_1
 62
   250
100
AcDbLine
 10
98.51974
 20
144.640267
 30
0.0
 11
98.51974
 21
181.640076
 31
0.0
  0
POLYLINE
  5
CA
100
AcDbEntity
  8
EBENE_1
 62
   250
100
AcDb2dPolyline
 66
     1
 10
0.0
 20
0.0
 30
0.0
 70
     1
  0
VERTEX
  5
CB
100
AcDbEntity
  8
EBENE_1
 62
   250
100
AcDbVertex
100
AcDb2dVertex
 10
98.51974
 20
101.639963
 30
0.0
  0
VERTEX
  5
CC
100
AcDbEntity
  8
EBENE_1
 62
   250
100
AcDbVertex
100
AcDb2dVertex
 10
97.397845
 20
105.641097
 30
0.0
  0
VERTEX
  5
CD
100
AcDbEntity
  8
EBENE_1
 62
   250
100
AcDbVertex
100
AcDb2dVertex
 10
99.641119
 20
105.641097
 30
0.0
  0
SEQEND
  5
CE
100
AcDbEntity
  8
EBENE_1
 62
   250
  0
HATCH
  5
C9
100
AcDbEntity
  8
EBENE_1
 62
   250
100
AcDbHatch
 10
0.0
 20
0.0
 30
0.0
210
0.0
220
0.0
230
1.0
  2
SOLID
 70
     1
 71
     0
 91
        1
 92
        3
 72
     0
 73
     1
 93
        3
 10
98.51974012586804
 20
101.63996310763888
 10
97.397844780815959
 20
105.64109700520832
 10
99.641118706597211
 20
105.64109700520832
 97
        0
 75
     0
 76
     1
 98
        1
 10
0.0
 20
0.0
  0
LINE
  5
C8
100
AcDbEntity
  8
EBENE_1
 62
   250
100
AcDbLine
 10
98.51974
 20
140.639822
 30
0.0
 11
98.51974
 21
101.639963
 31
0.0
  0
LINE
  5
C7
100
AcDbEntity
  8
EBENE_1
 62
   250
100
AcDbLine
 10
84.457033
 20
181.640076
 30
0.0
 11
98.51974
 21
181.640076
 31
0.0
  0
LINE
  5
C6
100
AcDbEntity
  8
EBENE_1
 62
   250
100
AcDbLine
 10
85.019789
 20
101.639963
 30
0.0
 11
98.51974
 21
101.639963
 31
0.0
  0
MTEXT
  5
C5
100
AcDbEntity
  8
EBENE_1
 62
   250
100
AcDbMText
 10
200.082189
 20
236.314832
 30
0.0
 40
3.674769
 41
0.0
 71
     1
 72
     2
  1
\fMyriad Roman|b0|i0; 92.0 
  7
STD
210
0.0
220
0.0
230
1.0
 11
1.000001
 21
0.0
 31
0.0
 73
     1
 44
1.0
  0
POLYLINE
  5
C0
100
AcDbEntity
  8
EBENE_1
 62
   250
100
AcDb2dPolyline
 66
     1
 10
0.0
 20
0.0
 30
0.0
 70
     1
  0
VERTEX
  5
C1
100
AcDbEntity
  8
EBENE_1
 62
   250
100
AcDbVertex
100
AcDb2dVertex
 10
160.582102
 20
233.640002
 30
0.0
  0
VERTEX
  5
C2
100
AcDbEntity
  8
EBENE_1
 62
   250
100
AcDbVertex
100
AcDb2dVertex
 10
164.583236
 20
234.637013
 30
0.0
  0
VERTEX
  5
C3
100
AcDbEntity
  8
EBENE_1
 62
   250
100
AcDbVertex
100
AcDb2dVertex
 10
164.583236
 20
232.642992
 30
0.0
  0
SEQEND
  5
C4
100
AcDbEntity
  8
EBENE_1
 62
   250
  0
HATCH
  5
BF
100
AcDbEntity
  8
EBENE_1
 62
   250
100
AcDbHatch
 10
0.0
 20
0.0
 30
0.0
210
0.0
220
0.0
230
1.0
  2
SOLID
 70
     1
 71
     0
 91
        1
 92
        3
 72
     0
 73
     1
 93
        3
 10
160.58210177951386
 20
233.64000244140624
 10
164.58323567708331
 20
234.63701307508677
 10
164.58323567708331
 20
232.64299180772568
 97
        0
 75
     0
 76
     1
 98
        1
 10
0.0
 20
0.0
  0
LINE
  5
BE
100
AcDbEntity
  8
EBENE_1
 62
   250
100
AcDbLine
 10
200.082189
 20
233.640002
 30
0.0
 11
160.582102
 21
233.640002
 31
0.0
  0
POLYLINE
  5
B9
100
AcDbEntity
  8
EBENE_1
 62
   250
100
AcDb2dPolyline
 66
     1
 10
0.0
 20
0.0
 30
0.0
 70
     1
  0
VERTEX
  5
BA
100
AcDbEntity
  8
EBENE_1
 62
   250
100
AcDbVertex
100
AcDb2dVertex
 10
252.581999
 20
233.640002
 30
0.0
  0
VERTEX
  5
BB
100
AcDbEntity
  8
EBENE_1
 62
   250
100
AcDbVertex
100
AcDb2dVertex
 10
248.580865
 20
232.642992
 30
0.0
  0
VERTEX
  5
BC
100
AcDbEntity
  8
EBENE_1
 62
   250
100
AcDbVertex
100
AcDb2dVertex
 10
248.580865
 20
234.637013
 30
0.0
  0
SEQEND
  5
BD
100
AcDbEntity
  8
EBENE_1
 62
   250
  0
HATCH
  5
B8
100
AcDbEntity
  8
EBENE_1
 62
   250
100
AcDbHatch
 10
0.0
 20
0.0
 30
0.0
210
0.0
220
0.0
230
1.0
  2
SOLID
 70
     1
 71
     0
 91
        1
 92
        3
 72
     0
 73
     1
 93
        3
 10
252.58199869791665
 20
233.64000244140624
 10
248.5808648003472
 20
232.64299180772568
 10
248.5808648003472
 20
234.63701307508677
 97
        0
 75
     0
 76
     1
 98
        1
 10
0.0
 20
0.0
  0
LINE
  5
B7
100
AcDbEntity
  8
EBENE_1
 62
   250
100
AcDbLine
 10
212.082145
 20
233.640002
 30
0.0
 11
252.581999
 21
233.640002
 31
0.0
  0
LINE
  5
B6
100
AcDbEntity
  8
EBENE_1
 62
   250
100
AcDbLine
 10
160.582102
 20
218.140001
 30
0.0
 11
160.582102
 21
233.640002
 31
0.0
  0
LINE
  5
B5
100
AcDbEntity
  8
EBENE_1
 62
   250
100
AcDbLine
 10
252.581999
 20
218.140001
 30
0.0
 11
252.581999
 21
244.106375
 31
0.0
  0
MTEXT
  5
B4
100
AcDbEntity
  8
EBENE_1
 62
   250
100
AcDbMText
 10
-36.980688
 20
205.814885
 30
0.0
 40
3.674769
 41
0.0
 71
     1
 72
     2
  1
\fMyriad Roman|b0|i0; 23.0 
  7
STD
210
0.0
220
0.0
230
1.0
 11
1.000001
 21
0.0
 31
0.0
 73
     1
 44
1.0
  0
POLYLINE
  5
AF
100
AcDbEntity
  8
EBENE_1
 62
   250
100
AcDb2dPolyline
 66
     1
 10
0.0
 20
0.0
 30
0.0
 70
     1
  0
VERTEX
  5
B0
100
AcDbEntity
  8
EBENE_1
 62
   250
100
AcDbVertex
100
AcDb2dVertex
 10
-18.418342
 20
203.140055
 30
0.0
  0
VERTEX
  5
B1
100
AcDbEntity
  8
EBENE_1
 62
   250
100
AcDbVertex
100
AcDb2dVertex
 10
-22.919359
 20
202.143045
 30
0.0
  0
VERTEX
  5
B2
100
AcDbEntity
  8
EBENE_1
 62
   250
100
AcDbVertex
100
AcDb2dVertex
 10
-22.919359
 20
204.137066
 30
0.0
  0
SEQEND
  5
B3
100
AcDbEntity
  8
EBENE_1
 62
   250
  0
HATCH
  5
AE
100
AcDbEntity
  8
EBENE_1
 62
   250
100
AcDbHatch
 10
0.0
 20
0.0
 30
0.0
210
0.0
220
0.0
230
1.0
  2
SOLID
 70
     1
 71
     0
 91
        1
 92
        3
 72
     0
 73
     1
 93
        3
 10
-18.418341742621525
 20
203.14005533854166
 10
-22.919358995225693
 20
202.1430447048611
 10
-22.919358995225693
 20
204.13706597222222
 97
        0
 75
     0
 76
     1
 98
        1
 10
0.0
 20
0.0
  0
LINE
  5
AD
100
AcDbEntity
  8
EBENE_1
 62
   250
100
AcDbLine
 10
-23.48091
 20
203.140055
 30
0.0
 11
-18.418342
 21
203.140055
 31
0.0
  0
POLYLINE
  5
A8
100
AcDbEntity
  8
EBENE_1
 62
   250
100
AcDb2dPolyline
 66
     1
 10
0.0
 20
0.0
 30
0.0
 70
     1
  0
VERTEX
  5
A9
100
AcDbEntity
  8
EBENE_1
 62
   250
100
AcDbVertex
100
AcDb2dVertex
 10
-44.29342
 20
203.140055
 30
0.0
  0
VERTEX
  5
AA
100
AcDbEntity
  8
EBENE_1
 62
   250
100
AcDbVertex
100
AcDb2dVertex
 10
-39.792059
 20
204.137066
 30
0.0
  0
VERTEX
  5
AB
100
AcDbEntity
  8
EBENE_1
 62
   250
100
AcDbVertex
100
AcDb2dVertex
 10
-39.792059
 20
202.143045
 30
0.0
  0
SEQEND
  5
AC
100
AcDbEntity
  8
EBENE_1
 62
   250
  0
HATCH
  5
A7
100
AcDbEntity
  8
EBENE_1
 62
   250
100
AcDbHatch
 10
0.0
 20
0.0
 30
0.0
210
0.0
220
0.0
230
1.0
  2
SOLID
 70
     1
 71
     0
 91
        1
 92
        3
 72
     0
 73
     1
 93
        3
 10
-44.293420410156244
 20
203.14005533854166
 10
-39.792058648003469
 20
204.13706597222222
 10
-39.792058648003469
 20
202.1430447048611
 97
        0
 75
     0
 76
     1
 98
        1
 10
0.0
 20
0.0
  0
MTEXT
  5
A6
100
AcDbEntity
  8
EBENE_1
 62
   250
100
AcDbMText
 10
-37.038049
 20
206.814824
 30
0.0
 40
3.674769
 41
0.0
 71
     1
 72
     2
  1
\fMyriad Roman|b0|i0;
  7
STD
210
0.0
220
0.0
230
1.0
 11
1.000001
 21
0.0
 31
0.0
 73
     1
 44
1.0
  0
LINE
  5
A5
100
AcDbEntity
  8
EBENE_1
 62
   250
100
AcDbLine
 10
-18.418342
 20
191.639982
 30
0.0
 11
-18.418342
 21
244.407821
 31
0.0
  0
LINE
  5
A4
100
AcDbEntity
  8
EBENE_1
 62
   250
100
AcDbLine
 10
-44.29342
 20
146.140262
 30
0.0
 11
-44.29342
 21
203.140055
 31
0.0
  0
MTEXT
  5
A3
100
AcDbEntity
  8
EBENE_1
 62
   250
100
AcDbMText
 10
255.128613
 20
163.814692
 30
0.0
 40
3.674769
 41
0.0
 71
     1
 72
     2
  1
\fMyriad Roman|b0|i0; 120.0 
  7
STD
210
0.0
220
0.0
230
1.0
 11
1.000001
 21
0.0
 31
0.0
 73
     1
 44
1.0
  0
POLYLINE
  5
9E
100
AcDbEntity
  8
EBENE_1
 62
   250
100
AcDb2dPolyline
 66
     1
 10
0.0
 20
0.0
 30
0.0
 70
     1
  0
VERTEX
  5
9F
100
AcDbEntity
  8
EBENE_1
 62
   250
100
AcDbVertex
100
AcDb2dVertex
 10
262.082194
 20
101.639963
 30
0.0
  0
VERTEX
  5
A0
100
AcDbEntity
  8
EBENE_1
 62
   250
100
AcDbVertex
100
AcDb2dVertex
 10
261.085183
 20
105.641097
 30
0.0
  0
VERTEX
  5
A1
100
AcDbEntity
  8
EBENE_1
 62
   250
100
AcDbVertex
100
AcDb2dVertex
 10
263.079205
 20
105.641097
 30
0.0
  0
SEQEND
  5
A2
100
AcDbEntity
  8
EBENE_1
 62
   250
  0
HATCH
  5
9D
100
AcDbEntity
  8
EBENE_1
 62
   250
100
AcDbHatch
 10
0.0
 20
0.0
 30
0.0
210
0.0
220
0.0
230
1.0
  2
SOLID
 70
     1
 71
     0
 91
        1
 92
        3
 72
     0
 73
     1
 93
        3
 10
262.08219401041663
 20
101.63996310763888
 10
261.0851833767361
 20
105.64109700520832
 10
263.07920464409722
 20
105.64109700520832
 97
        0
 75
     0
 76
     1
 98
        1
 10
0.0
 20
0.0
  0
LINE
  5
9C
100
AcDbEntity
  8
EBENE_1
 62
   250
100
AcDbLine
 10
262.082194
 20
159.140157
 30
0.0
 11
262.082194
 21
101.639963
 31
0.0
  0
POLYLINE
  5
97
100
AcDbEntity
  8
EBENE_1
 62
   250
100
AcDb2dPolyline
 66
     1
 10
0.0
 20
0.0
 30
0.0
 70
     1
  0
VERTEX
  5
98
100
AcDbEntity
  8
EBENE_1
 62
   250
100
AcDbVertex
100
AcDb2dVertex
 10
262.082194
 20
221.640046
 30
0.0
  0
VERTEX
  5
99
100
AcDbEntity
  8
EBENE_1
 62
   250
100
AcDbVertex
100
AcDb2dVertex
 10
263.079205
 20
217.639084
 30
0.0
  0
VERTEX
  5
9A
100
AcDbEntity
  8
EBENE_1
 62
   250
100
AcDbVertex
100
AcDb2dVertex
 10
261.085183
 20
217.639084
 30
0.0
  0
SEQEND
  5
9B
100
AcDbEntity
  8
EBENE_1
 62
   250
  0
HATCH
  5
96
100
AcDbEntity
  8
EBENE_1
 62
   250
100
AcDbHatch
 10
0.0
 20
0.0
 30
0.0
210
0.0
220
0.0
230
1.0
  2
SOLID
 70
     1
 71
     0
 91
        1
 92
        3
 72
     0
 73
     1
 93
        3
 10
262.08219401041663
 20
221.64004584418402
 10
263.07920464409722
 20
217.63908420138887
 10
261.0851833767361
 20
217.63908420138887
 97
        0
 75
     0
 76
     1
 98
        1
 10
0.0
 20
0.0
  0
LINE
  5
95
100
AcDbEntity
  8
EBENE_1
 62
   250
100
AcDbLine
 10
262.082194
 20
163.139913
 30
0.0
 11
262.082194
 21
221.640046
 31
0.0
  0
LINE
  5
94
100
AcDbEntity
  8
EBENE_1
 62
   250
100
AcDbLine
 10
236.581597
 20
101.639963
 30
0.0
 11
262.082194
 21
101.639963
 31
0.0
  0
LINE
  5
93
100
AcDbEntity
  8
EBENE_1
 62
   250
100
AcDbLine
 10
236.581597
 20
221.640046
 30
0.0
 11
262.082194
 21
221.640046
 31
0.0
  0
POLYLINE
  5
8E
100
AcDbEntity
  8
EBENE_1
 62
   250
100
AcDb2dPolyline
 66
     1
 10
0.0
 20
0.0
 30
0.0
 70
     1
  0
VERTEX
  5
8F
100
AcDbEntity
  8
EBENE_1
 62
   250
100
AcDbVertex
100
AcDb2dVertex
 10
-18.360464
 20
244.37113
 30
0.0
  0
VERTEX
  5
90
100
AcDbEntity
  8
EBENE_1
 62
   250
100
AcDbVertex
100
AcDb2dVertex
 10
-13.859275
 20
245.368141
 30
0.0
  0
VERTEX
  5
91
100
AcDbEntity
  8
EBENE_1
 62
   250
100
AcDbVertex
100
AcDb2dVertex
 10
-13.859275
 20
243.37412
 30
0.0
  0
SEQEND
  5
92
100
AcDbEntity
  8
EBENE_1
 62
   250
  0
HATCH
  5
8D
100
AcDbEntity
  8
EBENE_1
 62
   250
100
AcDbHatch
 10
0.0
 20
0.0
 30
0.0
210
0.0
220
0.0
230
1.0
  2
SOLID
 70
     1
 71
     0
 91
        1
 92
        3
 72
     0
 73
     1
 93
        3
 10
-18.360464138454859
 20
244.37113037109373
 10
-13.859274631076387
 20
245.36814100477429
 10
-13.859274631076387
 20
243.37411973741317
 97
        0
 75
     0
 76
     1
 98
        1
 10
0.0
 20
0.0
  0
LINE
  5
8C
100
AcDbEntity
  8
EBENE_1
 62
   250
100
AcDbLine
 10
142.577688
 20
244.358211
 30
0.0
 11
-18.337899
 21
244.358211
 31
0.0
  0
POLYLINE
  5
87
100
AcDbEntity
  8
EBENE_1
 62
   250
100
AcDb2dPolyline
 66
     1
 10
0.0
 20
0.0
 30
0.0
 70
     1
  0
VERTEX
  5
88
100
AcDbEntity
  8
EBENE_1
 62
   250
100
AcDbVertex
100
AcDb2dVertex
 10
252.581999
 20
244.244868
 30
0.0
  0
VERTEX
  5
89
100
AcDbEntity
  8
EBENE_1
 62
   250
100
AcDbVertex
100
AcDb2dVertex
 10
248.580865
 20
243.247857
 30
0.0
  0
VERTEX
  5
8A
100
AcDbEntity
  8
EBENE_1
 62
   250
100
AcDbVertex
100
AcDb2dVertex
 10
248.580865
 20
245.241878
 30
0.0
  0
SEQEND
  5
8B
100
AcDbEntity
  8
EBENE_1
 62
   250
  0
HATCH
  5
86
100
AcDbEntity
  8
EBENE_1
 62
   250
100
AcDbHatch
 10
0.0
 20
0.0
 30
0.0
210
0.0
220
0.0
230
1.0
  2
SOLID
 70
     1
 71
     0
 91
        1
 92
        3
 72
     0
 73
     1
 93
        3
 10
252.58199869791665
 20
244.24486762152776
 10
248.5808648003472
 20
243.2478569878472
 10
248.5808648003472
 20
245.24187825520832
 97
        0
 75
     0
 76
     1
 98
        1
 10
0.0
 20
0.0
  0
LINE
  5
85
100
AcDbEntity
  8
EBENE_1
 62
   250
100
AcDbLine
 10
155.351758
 20
244.193191
 30
0.0
 11
252.581999
 21
244.193191
 31
0.0
  0
MTEXT
  5
84
100
AcDbEntity
  8
EBENE_1
 62
   250
100
AcDbMText
 10
-9.41958
 20
199.314851
 30
0.0
 40
3.674769
 41
0.0
 71
     1
 72
     2
  1
\fMyriad Roman|b0|i0; 3.0 
  7
STD
210
0.0
220
0.0
230
1.0
 11
1.000001
 21
0.0
 31
0.0
 73
     1
 44
1.0
  0
POLYLINE
  5
7F
100
AcDbEntity
  8
EBENE_1
 62
   250
100
AcDb2dPolyline
 66
     1
 10
0.0
 20
0.0
 30
0.0
 70
     1
  0
VERTEX
  5
80
100
AcDbEntity
  8
EBENE_1
 62
   250
100
AcDbVertex
100
AcDb2dVertex
 10
-18.418342
 20
196.640021
 30
0.0
  0
VERTEX
  5
81
100
AcDbEntity
  8
EBENE_1
 62
   250
100
AcDbVertex
100
AcDb2dVertex
 10
-13.917152
 20
197.637032
 30
0.0
  0
VERTEX
  5
82
100
AcDbEntity
  8
EBENE_1
 62
   250
100
AcDbVertex
100
AcDb2dVertex
 10
-13.917152
 20
195.643011
 30
0.0
  0
SEQEND
  5
83
100
AcDbEntity
  8
EBENE_1
 62
   250
  0
HATCH
  5
7E
100
AcDbEntity
  8
EBENE_1
 62
   250
100
AcDbHatch
 10
0.0
 20
0.0
 30
0.0
210
0.0
220
0.0
230
1.0
  2
SOLID
 70
     1
 71
     0
 91
        1
 92
        3
 72
     0
 73
     1
 93
        3
 10
-18.418341742621525
 20
196.64002143012152
 10
-13.917152235243055
 20
197.63703206380205
 10
-13.917152235243055
 20
195.64301079644096
 97
        0
 75
     0
 76
     1
 98
        1
 10
0.0
 20
0.0
  0
LINE
  5
7D
100
AcDbEntity
  8
EBENE_1
 62
   250
100
AcDbLine
 10
-9.418547
 20
196.640021
 30
0.0
 11
-18.418342
 21
196.640021
 31
0.0
  0
POLYLINE
  5
78
100
AcDbEntity
  8
EBENE_1
 62
   250
100
AcDb2dPolyline
 66
     1
 10
0.0
 20
0.0
 30
0.0
 70
     1
  0
VERTEX
  5
79
100
AcDbEntity
  8
EBENE_1
 62
   250
100
AcDbVertex
100
AcDb2dVertex
 10
-21.230918
 20
196.640021
 30
0.0
  0
VERTEX
  5
7A
100
AcDbEntity
  8
EBENE_1
 62
   250
100
AcDbVertex
100
AcDb2dVertex
 10
-25.731935
 20
195.643011
 30
0.0
  0
VERTEX
  5
7B
100
AcDbEntity
  8
EBENE_1
 62
   250
100
AcDbVertex
100
AcDb2dVertex
 10
-25.731935
 20
197.637032
 30
0.0
  0
SEQEND
  5
7C
100
AcDbEntity
  8
EBENE_1
 62
   250
  0
HATCH
  5
77
100
AcDbEntity
  8
EBENE_1
 62
   250
100
AcDbHatch
 10
0.0
 20
0.0
 30
0.0
210
0.0
220
0.0
230
1.0
  2
SOLID
 70
     1
 71
     0
 91
        1
 92
        3
 72
     0
 73
     1
 93
        3
 10
-21.230917697482639
 20
196.64002143012152
 10
-25.731934950086803
 20
195.64301079644096
 10
-25.731934950086803
 20
197.63703206380205
 97
        0
 75
     0
 76
     1
 98
        1
 10
0.0
 20
0.0
  0
LINE
  5
76
100
AcDbEntity
  8
EBENE_1
 62
   250
100
AcDbLine
 10
-30.230885
 20
196.640021
 30
0.0
 11
-21.230918
 21
196.640021
 31
0.0
  0
LINE
  5
75
100
AcDbEntity
  8
EBENE_1
 62
   250
100
AcDbLine
 10
-18.418342
 20
91.140001
 30
0.0
 11
-18.418342
 21
196.640021
 31
0.0
  0
LINE
  5
74
100
AcDbEntity
  8
EBENE_1
 62
   250
100
AcDbLine
 10
-21.230918
 20
111.640386
 30
0.0
 11
-21.230918
 21
196.640021
 31
0.0
  0
MTEXT
  5
73
100
AcDbEntity
  8
EBENE_1
 62
   250
100
AcDbMText
 10
2.394341
 20
79.814824
 30
0.0
 40
3.674769
 41
0.0
 71
     1
 72
     2
  1
\fMyriad Roman|b0|i0; 11.0 
  7
STD
210
0.0
220
0.0
230
1.0
 11
1.000001
 21
0.0
 31
0.0
 73
     1
 44
1.0
  0
POLYLINE
  5
6E
100
AcDbEntity
  8
EBENE_1
 62
   250
100
AcDb2dPolyline
 66
     1
 10
0.0
 20
0.0
 30
0.0
 70
     1
  0
VERTEX
  5
6F
100
AcDbEntity
  8
EBENE_1
 62
   250
100
AcDbVertex
100
AcDb2dVertex
 10
-7.168555
 20
77.139822
 30
0.0
  0
VERTEX
  5
70
100
AcDbEntity
  8
EBENE_1
 62
   250
100
AcDbVertex
100
AcDb2dVertex
 10
-2.667365
 20
78.136833
 30
0.0
  0
VERTEX
  5
71
100
AcDbEntity
  8
EBENE_1
 62
   250
100
AcDbVertex
100
AcDb2dVertex
 10
-2.667365
 20
76.142811
 30
0.0
  0
SEQEND
  5
72
100
AcDbEntity
  8
EBENE_1
 62
   250
  0
HATCH
  5
6D
100
AcDbEntity
  8
EBENE_1
 62
   250
100
AcDbHatch
 10
0.0
 20
0.0
 30
0.0
210
0.0
220
0.0
230
1.0
  2
SOLID
 70
     1
 71
     0
 91
        1
 92
        3
 72
     0
 73
     1
 93
        3
 10
-7.1685546874999995
 20
77.139822048611109
 10
-2.6673651801215277
 20
78.136832682291654
 10
-2.6673651801215277
 20
76.142811414930549
 97
        0
 75
     0
 76
     1
 98
        1
 10
0.0
 20
0.0
  0
LINE
  5
6C
100
AcDbEntity
  8
EBENE_1
 62
   250
100
AcDbLine
 10
2.394341
 20
77.139822
 30
0.0
 11
-7.168555
 21
77.139822
 31
0.0
  0
POLYLINE
  5
67
100
AcDbEntity
  8
EBENE_1
 62
   250
100
AcDb2dPolyline
 66
     1
 10
0.0
 20
0.0
 30
0.0
 70
     1
  0
VERTEX
  5
68
100
AcDbEntity
  8
EBENE_1
 62
   250
100
AcDbVertex
100
AcDb2dVertex
 10
-18.418342
 20
77.139822
 30
0.0
  0
VERTEX
  5
69
100
AcDbEntity
  8
EBENE_1
 62
   250
100
AcDbVertex
100
AcDb2dVertex
 10
-22.919359
 20
76.142811
 30
0.0
  0
VERTEX
  5
6A
100
AcDbEntity
  8
EBENE_1
 62
   250
100
AcDbVertex
100
AcDb2dVertex
 10
-22.919359
 20
78.136833
 30
0.0
  0
SEQEND
  5
6B
100
AcDbEntity
  8
EBENE_1
 62
   250
  0
HATCH
  5
66
100
AcDbEntity
  8
EBENE_1
 62
   250
100
AcDbHatch
 10
0.0
 20
0.0
 30
0.0
210
0.0
220
0.0
230
1.0
  2
SOLID
 70
     1
 71
     0
 91
        1
 92
        3
 72
     0
 73
     1
 93
        3
 10
-18.418341742621525
 20
77.139822048611109
 10
-22.919358995225693
 20
76.142811414930549
 10
-22.919358995225693
 20
78.136832682291654
 97
        0
 75
     0
 76
     1
 98
        1
 10
0.0
 20
0.0
  0
LINE
  5
65
100
AcDbEntity
  8
EBENE_1
 62
   250
100
AcDbLine
 10
-27.418309
 20
77.139822
 30
0.0
 11
-18.418342
 21
77.139822
 31
0.0
  0
LINE
  5
64
100
AcDbEntity
  8
EBENE_1
 62
   250
100
AcDbLine
 10
-7.168555
 20
91.140001
 30
0.0
 11
-7.168555
 21
77.139822
 31
0.0
  0
LINE
  5
63
100
AcDbEntity
  8
EBENE_1
 62
   250
100
AcDbLine
 10
-18.418342
 20
92.139768
 30
0.0
 11
-18.418342
 21
77.139822
 31
0.0
  0
LINE
  5
62
100
AcDbEntity
  8
EBENE_1
 62
   250
100
AcDbLine
 10
165.620898
 20
180.710072
 30
0.0
 11
252.547892
 21
180.710072
 31
0.0
  0
LINE
  5
61
100
AcDbEntity
  8
EBENE_1
 62
   250
100
AcDbLine
 10
165.655005
 20
183.695936
 30
0.0
 11
252.547548
 21
183.695936
 31
0.0
  0
LINE
  5
60
100
AcDbEntity
  8
EBENE_1
 62
   250
100
AcDbLine
 10
165.681532
 20
170.5386
 30
0.0
 11
252.153429
 21
170.5386
 31
0.0
  0
LINE
  5
5F
100
AcDbEntity
  8
EBENE_1
 62
   250
100
AcDbLine
 10
165.655005
 20
167.635246
 30
0.0
 11
252.389418
 21
167.635246
 31
0.0
  0
LINE
  5
5E
100
AcDbEntity
  8
EBENE_1
 62
   250
100
AcDbLine
 10
165.177859
 20
141.650613
 30
0.0
 11
252.499661
 21
141.650613
 31
0.0
  0
LINE
  5
5D
100
AcDbEntity
  8
EBENE_1
 62
   250
100
AcDbLine
 10
165.602639
 20
157.516311
 30
0.0
 11
252.595779
 21
157.516311
 31
0.0
  0
LINE
  5
5C
100
AcDbEntity
  8
EBENE_1
 62
   250
100
AcDbLine
 10
165.655005
 20
154.637245
 30
0.0
 11
252.58441
 21
154.637245
 31
0.0
  0
LINE
  5
5B
100
AcDbEntity
  8
EBENE_1
 62
   250
100
AcDbLine
 10
-20.155014
 20
191.570908
 30
0.0
 11
-80.467268
 21
191.570908
 31
0.0
  0
LINE
  5
5A
100
AcDbEntity
  8
EBENE_1
 62
   250
100
AcDbLine
 10
-42.788086
 20
147.031852
 30
0.0
 11
-53.594317
 21
147.031852
 31
0.0
  0
LINE
  5
59
100
AcDbEntity
  8
EBENE_1
 62
   250
100
AcDbLine
 10
-42.788086
 20
147.031852
 30
0.0
 11
-53.594317
 21
147.031852
 31
0.0
  0
MTEXT
  5
58
100
AcDbEntity
  8
EBENE_1
 62
   250
100
AcDbMText
 10
-73.997378
 20
145.037372
 30
0.0
 40
3.674769
 41
0.0
 71
     1
 72
     2
  1
\fMyriad Roman|b0|i0; 60j6
  7
STD
210
0.0
220
0.0
230
1.0
 11
1.000001
 21
0.0
 31
0.0
 73
     1
 44
1.0
  0
MTEXT
  5
57
100
AcDbEntity
  8
EBENE_1
 62
   250
100
AcDbMText
 10
-86.993829
 20
145.329171
 30
0.0
 40
3.674769
 41
0.0
 71
     1
 72
     2
  1
\fMyriad Roman|b0|i0;100.0
  7
STD
210
0.0
220
0.0
230
1.0
 11
1.000001
 21
0.0
 31
0.0
 73
     1
 44
1.0
  0
LINE
  5
56
100
AcDbEntity
  8
EBENE_1
 62
   250
100
AcDbLine
 10
-43.08023
 20
136.225621
 30
0.0
 11
-53.886461
 21
136.225621
 31
0.0
  0
LINE
  5
55
100
AcDbEntity
  8
EBENE_1
 62
   250
100
AcDbLine
 10
-53.740389
 20
127.879877
 30
0.0
 11
-53.740389
 21
136.101942
 31
0.0
  0
POLYLINE
  5
50
100
AcDbEntity
  8
EBENE_1
 62
   250
100
AcDb2dPolyline
 66
     1
 10
0.0
 20
0.0
 30
0.0
 70
     1
  0
VERTEX
  5
51
100
AcDbEntity
  8
EBENE_1
 62
   250
100
AcDbVertex
100
AcDb2dVertex
 10
-68.635087
 20
111.586298
 30
0.0
  0
VERTEX
  5
52
100
AcDbEntity
  8
EBENE_1
 62
   250
100
AcDbVertex
100
AcDb2dVertex
 10
-69.75681
 20
115.586743
 30
0.0
  0
VERTEX
  5
53
100
AcDbEntity
  8
EBENE_1
 62
   250
100
AcDbVertex
100
AcDb2dVertex
 10
-67.513708
 20
115.586743
 30
0.0
  0
SEQEND
  5
54
100
AcDbEntity
  8
EBENE_1
 62
   250
  0
HATCH
  5
4F
100
AcDbEntity
  8
EBENE_1
 62
   250
100
AcDbHatch
 10
0.0
 20
0.0
 30
0.0
210
0.0
220
0.0
230
1.0
  2
SOLID
 70
     1
 71
     0
 91
        1
 92
        3
 72
     0
 73
     1
 93
        3
 10
-68.635087076822913
 20
111.58629828559027
 10
-69.756810167100681
 20
115.58674316406248
 10
-67.513708496093741
 20
115.58674316406248
 97
        0
 75
     0
 76
     1
 98
        1
 10
0.0
 20
0.0
  0
POLYLINE
  5
4A
100
AcDbEntity
  8
EBENE_1
 62
   250
100
AcDb2dPolyline
 66
     1
 10
0.0
 20
0.0
 30
0.0
 70
     1
  0
VERTEX
  5
4B
100
AcDbEntity
  8
EBENE_1
 62
   250
100
AcDbVertex
100
AcDb2dVertex
 10
-80.668978
 20
91.822475
 30
0.0
  0
VERTEX
  5
4C
100
AcDbEntity
  8
EBENE_1
 62
   250
100
AcDbVertex
100
AcDb2dVertex
 10
-81.790701
 20
95.822919
 30
0.0
  0
VERTEX
  5
4D
100
AcDbEntity
  8
EBENE_1
 62
   250
100
AcDbVertex
100
AcDb2dVertex
 10
-79.547599
 20
95.822919
 30
0.0
  0
SEQEND
  5
4E
100
AcDbEntity
  8
EBENE_1
 62
   250
  0
HATCH
  5
49
100
AcDbEntity
  8
EBENE_1
 62
   250
100
AcDbHatch
 10
0.0
 20
0.0
 30
0.0
210
0.0
220
0.0
230
1.0
  2
SOLID
 70
     1
 71
     0
 91
        1
 92
        3
 72
     0
 73
     1
 93
        3
 10
-80.668977864583326
 20
91.822474500868054
 10
-81.790700954861109
 20
95.822919379340263
 10
-79.547599283854154
 20
95.822919379340263
 97
        0
 75
     0
 76
     1
 98
        1
 10
0.0
 20
0.0
  0
LINE
  5
48
100
AcDbEntity
  8
EBENE_1
 62
   250
100
AcDbLine
 10
-17.937406
 20
91.718777
 30
0.0
 11
-80.874478
 21
91.718777
 31
0.0
  0
LINE
  5
47
100
AcDbEntity
  8
EBENE_1
 62
   250
100
AcDbLine
 10
-80.755794
 20
91.516206
 30
0.0
 11
-80.755794
 21
137.905105
 31
0.0
  0
LINE
  5
46
100
AcDbEntity
  8
EBENE_1
 62
   250
100
AcDbLine
 10
-80.534791
 20
147.877279
 30
0.0
 11
-80.534791
 21
190.411289
 31
0.0
  0
POLYLINE
  5
41
100
AcDbEntity
  8
EBENE_1
 62
   250
100
AcDb2dPolyline
 66
     1
 10
0.0
 20
0.0
 30
0.0
 70
     1
  0
VERTEX
  5
42
100
AcDbEntity
  8
EBENE_1
 62
   250
100
AcDbVertex
100
AcDb2dVertex
 10
-80.534619
 20
191.570047
 30
0.0
  0
VERTEX
  5
43
100
AcDbEntity
  8
EBENE_1
 62
   250
100
AcDbVertex
100
AcDb2dVertex
 10
-79.413241
 20
187.568913
 30
0.0
  0
VERTEX
  5
44
100
AcDbEntity
  8
EBENE_1
 62
   250
100
AcDbVertex
100
AcDb2dVertex
 10
-81.656342
 20
187.568913
 30
0.0
  0
SEQEND
  5
45
100
AcDbEntity
  8
EBENE_1
 62
   250
  0
HATCH
  5
40
100
AcDbEntity
  8
EBENE_1
 62
   250
100
AcDbHatch
 10
0.0
 20
0.0
 30
0.0
210
0.0
220
0.0
230
1.0
  2
SOLID
 70
     1
 71
     0
 91
        1
 92
        3
 72
     0
 73
     1
 93
        3
 10
-80.534619140624997
 20
191.5700466579861
 10
-79.413240559895826
 20
187.56891276041665
 10
-81.656342230902766
 20
187.56891276041665
 97
        0
 75
     0
 76
     1
 98
        1
 10
0.0
 20
0.0
  0
POLYLINE
  5
3B
100
AcDbEntity
  8
EBENE_1
 62
   250
100
AcDb2dPolyline
 66
     1
 10
0.0
 20
0.0
 30
0.0
 70
     1
  0
VERTEX
  5
3C
100
AcDbEntity
  8
EBENE_1
 62
   250
100
AcDbVertex
100
AcDb2dVertex
 10
-68.569113
 20
171.600895
 30
0.0
  0
VERTEX
  5
3D
100
AcDbEntity
  8
EBENE_1
 62
   250
100
AcDbVertex
100
AcDb2dVertex
 10
-67.447735
 20
167.599761
 30
0.0
  0
VERTEX
  5
3E
100
AcDbEntity
  8
EBENE_1
 62
   250
100
AcDbVertex
100
AcDb2dVertex
 10
-69.690837
 20
167.599761
 30
0.0
  0
SEQEND
  5
3F
100
AcDbEntity
  8
EBENE_1
 62
   250
  0
HATCH
  5
3A
100
AcDbEntity
  8
EBENE_1
 62
   250
100
AcDbHatch
 10
0.0
 20
0.0
 30
0.0
210
0.0
220
0.0
230
1.0
  2
SOLID
 70
     1
 71
     0
 91
        1
 92
        3
 72
     0
 73
     1
 93
        3
 10
-68.569113498263889
 20
171.60089518229165
 10
-67.447734917534717
 20
167.59976128472221
 10
-69.690836588541657
 20
167.59976128472221
 97
        0
 75
     0
 76
     1
 98
        1
 10
0.0
 20
0.0
  0
LINE
  5
39
100
AcDbEntity
  8
EBENE_1
 62
   250
100
AcDbLine
 10
-68.543103
 20
170.598889
 30
0.0
 11
-68.543103
 21
148.088808
 31
0.0
  0
LINE
  5
38
100
AcDbEntity
  8
EBENE_1
 62
   250
100
AcDbLine
 10
91.438691
 20
233.729575
 30
0.0
 11
-18.518766
 21
233.729575
 31
0.0
  0
LINE
  5
37
100
AcDbEntity
  8
EBENE_1
 62
   250
100
AcDbLine
 10
160.644458
 20
233.580575
 30
0.0
 11
102.075423
 21
233.580575
 31
0.0
  0
POLYLINE
  5
32
100
AcDbEntity
  8
EBENE_1
 62
   250
100
AcDb2dPolyline
 66
     1
 10
0.0
 20
0.0
 30
0.0
 70
     1
  0
VERTEX
  5
33
100
AcDbEntity
  8
EBENE_1
 62
   250
100
AcDbVertex
100
AcDb2dVertex
 10
160.53387
 20
233.600728
 30
0.0
  0
VERTEX
  5
34
100
AcDbEntity
  8
EBENE_1
 62
   250
100
AcDbVertex
100
AcDb2dVertex
 10
156.532737
 20
232.603718
 30
0.0
  0
VERTEX
  5
35
100
AcDbEntity
  8
EBENE_1
 62
   250
100
AcDbVertex
100
AcDb2dVertex
 10
156.532737
 20
234.597739
 30
0.0
  0
SEQEND
  5
36
100
AcDbEntity
  8
EBENE_1
 62
   250
  0
HATCH
  5
31
100
AcDbEntity
  8
EBENE_1
 62
   250
100
AcDbHatch
 10
0.0
 20
0.0
 30
0.0
210
0.0
220
0.0
230
1.0
  2
SOLID
 70
     1
 71
     0
 91
        1
 92
        3
 72
     0
 73
     1
 93
        3
 10
160.53387044270832
 20
233.60072835286456
 10
156.53273654513887
 20
232.603717719184
 10
156.53273654513887
 20
234.59773898654512
 97
        0
 75
     0
 76
     1
 98
        1
 10
0.0
 20
0.0
  0
POLYLINE
  5
2C
100
AcDbEntity
  8
EBENE_1
 62
   250
100
AcDb2dPolyline
 66
     1
 10
0.0
 20
0.0
 30
0.0
 70
     1
  0
VERTEX
  5
2D
100
AcDbEntity
  8
EBENE_1
 62
   250
100
AcDbVertex
100
AcDb2dVertex
 10
-18.376312
 20
233.732503
 30
0.0
  0
VERTEX
  5
2E
100
AcDbEntity
  8
EBENE_1
 62
   250
100
AcDbVertex
100
AcDb2dVertex
 10
-13.875122
 20
234.729514
 30
0.0
  0
VERTEX
  5
2F
100
AcDbEntity
  8
EBENE_1
 62
   250
100
AcDbVertex
100
AcDb2dVertex
 10
-13.875122
 20
232.735493
 30
0.0
  0
SEQEND
  5
30
100
AcDbEntity
  8
EBENE_1
 62
   250
  0
HATCH
  5
2B
100
AcDbEntity
  8
EBENE_1
 62
   250
100
AcDbHatch
 10
0.0
 20
0.0
 30
0.0
210
0.0
220
0.0
230
1.0
  2
SOLID
 70
     1
 71
     0
 91
        1
 92
        3
 72
     0
 73
     1
 93
        3
 10
-18.37631157769097
 20
233.73250325520831
 10
-13.875122070312498
 20
234.72951388888887
 10
-13.875122070312498
 20
232.73549262152775
 97
        0
 75
     0
 76
     1
 98
        1
 10
0.0
 20
0.0
  0
MTEXT
  5
2A
100
AcDbEntity
  8
EBENE_1
 62
   250
100
AcDbMText
 10
144.765668
 20
246.871466
 30
0.0
 40
3.674769
 41
0.0
 71
     1
 72
     2
  1
\fMyriad Roman|b0|i0;271 
  7
STD
210
0.0
220
0.0
230
1.0
 11
1.000001
 21
0.0
 31
0.0
 73
     1
 44
1.0
  0
MTEXT
  5
29
100
AcDbEntity
  8
EBENE_1
 62
   250
100
AcDbMText
 10
92.297898
 20
235.648378
 30
0.0
 40
3.674769
 41
0.0
 71
     1
 72
     2
  1
\fMyriad Roman|b0|i0;179 
  7
STD
210
0.0
220
0.0
230
1.0
 11
1.000001
 21
0.0
 31
0.0
 73
     1
 44
1.0
  0
ENDSEC
  0
SECTION
  2
OBJECTS
  0
DICTIONARY
  5
19
100
AcDbDictionary
280
     0
281
     1
  3
ACAD_GROUP
350
1A
  3
ACAD_MLINESTYLE
350
1B
  3
ACAD_LAYOUT
350
1E
  3
ACAD_PLOTSETTINGS
350
22
  3
ACAD_PLOTSTYLENAME
350
1F
  3
ACAD_WIPEOUT_VARS
350
23
  0
DICTIONARY
  5
1A
102
{ACAD_REACTORS
330
19
102
}
100
AcDbDictionary
280
     0
281
     1
  0
DICTIONARY
  5
1B
102
{ACAD_REACTORS
330
19
102
}
100
AcDbDictionary
280
     0
281
     1
  3
Standard
350
1C
  0
MLINESTYLE
  5
1C
102
{ACAD_REACTORS
330
1B
102
}
100
AcDbMlineStyle
  2
Standard
 70
     0
  3

 62
     0
 51
90.0
 52
90.0
 71
     2
 49
0.5
 62
   256
  6
BYLAYER
 49
-0.5
 62
   256
  6
BYLAYER
  0
ACDBDICTIONARYWDFLT
  5
1F
102
{ACAD_REACTORS
330
19
102
}
100
AcDbDictionary
281
     1
  3
Normal
350
1D
100
AcDbDictionaryWithDefault
340
1D
  0
ACDBPLACEHOLDER
  5
1D
102
{ACAD_REACTORS
330
1F
102
}
  0
LAYOUT
  5
20
102
{ACAD_REACTORS
330
1E
102
}
100
AcDbPlotSettings
  1

  2

  4

  6

 40
0.0
 41
0.0
 42
0.0
 43
0.0
 44
0.0
 45
0.0
 46
0.0
 47
0.0
 48
0.0
 49
0.0
140
0.0
141
0.0
142
1.0
143
1.0
 70
  1024
 72
     0
 73
     0
 74
     0
  7

 75
     0
147
1.0
148
0.0
149
0.0
100
AcDbLayout
  1
Model
 70
     0
 71
     0
 10
0.0
 20
0.0
 11
0.0
 21
0.0
 12
0.0
 22
0.0
 32
0.0
 14
0.0
 24
0.0
 34
0.0
 15
0.0
 25
0.0
 35
0.0
146
0.0
 13
0.0
 23
0.0
 33
0.0
 16
0.0
 26
0.0
 36
0.0
 17
0.0
 27
0.0
 37
0.0
 76
     0
330
A
331
0
345
0
346
0
  0
LAYOUT
  5
21
102
{ACAD_REACTORS
330
1E
102
}
100
AcDbPlotSettings
  1

  2

  4

  6

 40
0.0
 41
0.0
 42
0.0
 43
0.0
 44
0.0
 45
0.0
 46
0.0
 47
0.0
 48
0.0
 49
0.0
140
0.0
141
0.0
142
1.0
143
1.0
 70
     0
 72
     0
 73
     0
 74
     0
  7

 75
     0
147
1.0
148
0.0
149
0.0
100
AcDbLayout
  1
Layout1
 70
     0
 71
     0
 10
0.0
 20
0.0
 11
0.0
 21
0.0
 12
0.0
 22
0.0
 32
0.0
 14
0.0
 24
0.0
 34
0.0
 15
0.0
 25
0.0
 35
0.0
146
0.0
 13
0.0
 23
0.0
 33
0.0
 16
0.0
 26
0.0
 36
0.0
 17
0.0
 27
0.0
 37
0.0
 76
     0
330
B
331
0
345
0
346
0
  0
DICTIONARY
  5
1E
102
{ACAD_REACTORS
330
19
102
}
100
AcDbDictionary
280
     0
281
     1
  3
Layout1
350
21
  3
Model
350
20
  0
DICTIONARY
  5
22
102
{ACAD_REACTORS
330
19
102
}
100
AcDbDictionary
280
     0
281
     1
  0
WIPEOUTVARIABLES
  5
23
100
AcDbWipeoutVariables
 70
     1
  0
ENDSEC
  0
EOF
